» » »

Incubus - Defiance Tabs

Artists:  A B C D E F G H I J K L M N O P Q R S T U V W X Y Z # 

Defiance Tabs

(ver. 1) Click to play this song!
Incubus
 Rating:
4/5 (4 votes)

 Defiance lessons Tabs too difficult? Try these video lessons and learn fast
 
                Incubus
If Not Now, When?

Tuning: 1/2 step down

Intro
e|--5-5--7--14--14--5-5--7-------5--------|
B|--6-6--8--15--15--6-6--8--5h7--7-7------|
G|--5-5--7--14--14--5-5--7--7--7---7------|
D|--0-0--0--0-0-----0-0--0--0--0---0------|
A|----------------------------------------|
E|----------------------------------------|

e|--5-5--7--14--14--5-5--7-------5-----------5-----------5--------|
B|--6-6--8--15--15--6-6--8--5h7--7-7p5--5h7--7-7p5--5h7--7-7p5----|
G|--5-5--7--14--14--5-5--7--7--7--------7--7--------7--7----------|
D|--0-0--0--0-0-----0-0--0--0--0--------0--0--------0--0----------|
A|----------------------------------------------------------------|
E|----------------------------------------------------------------|

Verse
e|----------------------------------------------------------------------|
B|----------------------------------------------------------------------|
G|--7-7--7--7-7--7-------------------7-7--7--7-7--7-----------0---------|
D|--7-7--7--7-7--5--4--4-4-4--4-4-4--7-7--7--7-7--5--4-4--0h2---2-2-2---|
A|--9-9--7--5-5--5--5--5-5-5--5-5-5--9-9--7--5-5--5--5-5--3-----3-3-3---|
E|---------------7--5--5-5-5--5-5-5---------------7--5-5----------------|

e|--------------------------------------------------------------0---------|
B|--------------------------------------------------------------0---------|
G|--7-7--7--7-7--7-------------------7-7--7--7-7--7-------------0---0-----|
D|--7-7--7--7-7--5--4--4-4-4--4-4-4--7-7--7--7-7--5--4-4--2--2----2-2-----|
A|--9-9--7--5-5--5--5--5-5-5--5-5-5--9-9--7--5-5--5--5-5--3--2----2-2-----|
E|---------------7--5--5-5-5--5-5-5---------------7--5-5-----0-0----------|

e|--------------0-------------------------|
B|--------------0-----2--2--2-3-2--2--2---|
G|-----0--------0---0-2--2--2-2-2--2--2---|
D|--2--2-2p0-2----2-2-2--2--2-2-2--2--2---|
A|--3-3--3p0-2----2-2-0-0--0------0--0----|
E|-----------0-0--------------------------|

Chorus Chords
e|--2---3---3---3----|
B|--3---3---3---3----|
G|--2---0---0---0----|
D|--0---X---X---0----|
A|------3---2---2----|
E|--------------3----|
            
Submit corrections


        Defiance lessons Hard to play? Try these video lessons and learn fast Defiance lessons
        
↑ Back to top | Tablatures and chords for acoustic guitar and electric guitar, ukulele, drums are parodies/interpretations of the original songs. You may use it for private study, scholarship, research or language learning purposes only