Home » I » Incubus »

Incubus - Clean Tabs

Artists:  A B C D E F G H I J K L M N O P Q R S T U V W X Y Z # 

Clean Tabs

(ver. 3) Click to play this song!
Incubus
 Rating:
4/5 (4 votes)
                This song is pretty easy.  You might have to listen to the song 
before you can play it.  If there are any obvious mistakes its 
because I was tabbing this to an acoustic live version.

Intro: the intro progressively gets louder as I will indicate.

light distortion
e|-----------------|
B|-----------------|
G|-----------------|
D|-----------------|
A|-----------------|
D|--7h9-9-0-7h9-9--| 
		x4

louder with more distortion 
e|----------------------7-7-7------|
B|---------------------------------|
G|---------------------------------|
D|--7h9-9-0-7h9-9--xxxx------------|
A|--7h9-9-0-7h9-9--xxxx------------|
D|--7h9-9-0-7h9-9--xxxx------------|
			x8

even louder with even more distortion
e|-----------------0-xxxxxxxxxxxx-----|
B|-----------------7*xxxxxxxxxxxx-----|
G|------------------------------------|
D|--7h9-9-0-7h9-9---------------------|
A|--7h9-9-0-7h9-9---------------------|
D|--7h9-9-0-7h9-9---------------------|
			x4	*bend this chord
				
loud distortion 
e|----------------------------|
B|----------------------------|
G|----------------------------|
D|--7h9-9-0-7h9-9-0-7h9-9-12--|
A|--7h9-9-0-7h9-9-0-7h9-9-12--|
D|--7h9-9-0-7h9-9-0-7h9-9-12--|
 
Verse: Repeat this as many times as necessary

e|-----------|
B|--2-2------|
G|--2--------|
D|--4--4-----|
A|--5---5----|
D|-----------| 

e|--7--7-------| 
B|--10---10----|
G|--8-------8--|
D|--9----------|
A|-------------|
D|-------------|

Pre-Chorus: 
e|--7-7-7-7-7-7-7-7-7-7-7--|
B|-------------------------| 

Chorus: 
e|------------------------------| 
B|------------------------------| 
G|------------------------------|
D|--7h9-9-0-12--7-7--7--5-5--5--|
A|--7h9-9-0-12--7-7--7--5-5--5--|
D|--7h9-9-0-12--7-7--7--5-5--5--|

e|------------------------------------|
B|------------------------------------|
G|------------------------------------|
D|--7h9-9-0-12--xxx--7h9-9--0-7-7--7--|
A|--7h9-9-0-12--xxx--7h9-9--0-7-7--7--|
D|--7h9-9-0-12--xxx--7h9-9--0-7-7--7--|


Post-Chorus: Only after 1st chorus

e|--7-7-7-7-7-7-7-7-7-7-7--|
B|-------------------------|

Bridge:  
e|------------------------------------------| 
B|------------------------------------------|
G|------------------------------------------|
D|--10-10-10--10-10-10--8-8-8--13-10-10-10--|
A|--10-10-10--10-10-10--8-8-8--13-10-10-10--| 
D|--10-10-10--10-10-10--8-8-8--13-10-10-10--|

e|---------------------------------------------------------|
B|---------------------------------------------------------|
G|---------------------------------------------------------|
D|--10-10-10--10-10-10--8-8-8--6-6-6--6-6-6--6-5-5--5-3-3--|
A|--10-10-10--10-10-10--8-8-8--6-6-6--6-6-6--6-5-5--5-3-3--|
D|--10-10-10--10-10-10--8-8-8--6-6-6--6-6-6--6-5-5--5-3-3--|

play this on at the very end of the bridge
e|---------|
B|---------|
G|---------|
D|--8-8-8--|
A|--8-8-8--|
D|--8-8-8--|


Outro: 
e|----------------------------|
B|----------------------------|
G|----------------------------|
D|--7h9-9-0-7h9-9-0-7h9-9-12--|
A|--7h9-9-0-7h9-9-0-7h9-9-12--|
D|--7h9-9-0-7h9-9-0-7h9-9-12--|
            
Submit corrections

↑ Back to top | Tablatures and chords for acoustic guitar and electric guitar, ukulele, drums are parodies/interpretations of the original songs. You may use it for private study, scholarship, research or language learning purposes only