Home » I » Impressions »

Impressions - People Get Ready Tabs

Artists:  A B C D E F G H I J K L M N O P Q R S T U V W X Y Z # 

People Get Ready Tabs

(ver. 2) Click to play this song!
Impressions
 Intro
  Q=73
       Db      Bbm7       Gb      Db
 4/4
  Gtr I (Horns arr. for Gtr.)
  E  E E E +E  E E E   Q  E E +Q.     E
|--------------------|------------------|
|-6--7-6-------------|------------------|
|--------6-(6)-------|-6----6-(6)-------|
|--------------8-6-8-|----8-------------|
|--------------------|------------------|
|--------------------|------------------|
|
| Gtr II (Clean El. Gtr.)
| Q    e E  E  e E e   Q  e E  E  e E e
|--------------6---6-|------------------|
|------6-------6---6-|----7-------6---6-|
|------6-------6---6-|----6-------6---6-|
|------6-------------|----8-------6---6-|
|--------------------|------------------|
|--------------------|------------------|
|
| Gtr III (Clean El. Gtr.)
| Q.     E +E  E E E   Q  E E +H
|--------------------|------------------|
|--------------------|------------------|
|--------3-(3)-3---3-|-3----1-(1)-------|
|-6------3-(3)---3---|-4--x-3-(3)-------|
|-4------------------|------------------|
|--------------------|------------------|


                                            1st & 2nd Verses
               Bbm7        Gb      Db            Db       Bbm7
  E  E E E +E  E E E   Q   E E +Q.     E     H        +H
|--------------------|-------------------||---------------------|
|-6--7-6-------------|-------------------||o--------------------|
|--------6-(6)-------|-6-----6-(6)-------||---------------------|
|--------------8-6-8-|-----8-------------||--6--------(6)-------|
|--------------------|-------------------||o--------------------|
|--------------------|-------------------||---------------------|
|
| Q    e E  E  e E e   Q   e E  E  e E e     Q   e  E  E  e E e
|--------------6---6-|-------------------||---------------6---6-|
|------6-------6---6-|-----7-------6---6-||o-----6--------6---6-|
|------6-------6---6-|-----6-------6---6-||------6--------6---6-|
|------6-------------|-----8-------6---6-||------6--------------|
|--------------------|-------------------||o--------------------|
|--------------------|-------------------||---------------------|
|
| Q.     E +E  E E E   Q.    E +E  E Q       E E E  E +E  E E E
|--------------------|-------------------||---------------------|
|--------------------|-------------------||o--------------------|
|--------3-(3)-3---3-|-3-----------------||--6------------------|
|-6------3-(3)---3---|-4-----------3-6---||--6---6-!8-(8)-8---8-|
|-4------------------|-4-----4-(4)-------||o---8---!8-(8)---8---|
|--------------------|-------------------||--------!6-(6)-------|


      Gb      Db                  Bbm7         Gb      Db
  Q.    E +H          W                    Q.    E +Q.     E
|-------------------|--------------------|-------------------|
|-------------------|--------------------|-------------------|
|-------------------|--------------------|-------------------|
|-4-----3-(3)-------|-6------------------|-4-----3-(3)-------|
|-------------------|--------------------|-------------------|
|-------------------|--------------------|-------------------|
|
| Q   e E  E  e E e   Q   e E  E  e  E e   Q   e E  E  e E e
|-------------------|-------------6----6-|-------------------|
|-----7-------6---6-|-----6-------6----6-|-----7-------6---6-|
|-----6-------6---6-|-----6-------6----6-|-----6-------6---6-|
|-----8-------6---6-|-----6--------------|-----8-------6---6-|
|-------------------|--------------------|-------------------|
|-------------------|--------------------|-------------------|
|
| Q.    E +H          E E E E +E  Q.       Q.    E +E  E Q
|-------------------|--------------------|-------------------|
|-------------------|--------------------|-------------------|
|-------3-(3)-------|-----6--------------|-------------------|
|-8-----3-(3)-------|---6---8-(8)-8------|-4-----3-(3)-3-6---|
|-9-----4-(4)-------|-4-----8-(8)--------|-------4-(4)-------|
|-------------------|-------6-(6)--------|-4-----------------|


              Bbm7         Gb      Db         Fm7      Ebm7
  W                    Q.    E +H          H        H
|--------------------|-------------------|-------------------|
|--------------------|-------------------|-------------------|
|--------------------|-------------------|-------------------|
|-6------------------|-4-----3-(3)-------|-6--------4--------|
|--------------------|-------------------|-------------------|
|--------------------|-------------------|-------------------|
|
| Q   e E  E  e  E e   Q   e E  E  e E e   Q   e E  E  e E e
|-------------6----6-|-------------------|-------------------|
|-----6-------6----6-|-----7-------6---6-|-----9-------7---7-|
|-----6-------6----6-|-----6-------6---6-|-----8-------6---6-|
|-----6--------------|-----8-------6---6-|----10-------8---8-|
|--------------------|-------------------|-----8-------6---6-|
|--------------------|-------------------|-------------------|
|
| E E E E +E  Q.       Q.    E +Q    E e   Q   E E +E  E E e
|--------------------|-------------------|-------------------|
|--------------------|-------------------|-9-----------------|
|-------6-(6)--------|-3---------------6-|-8-----8-(8)---8---|
|---3-6-8-(8)-8------|-4-------------6---|-------------8---8-|
|-4-----8-(8)--------|-------4-(4)-------|-------------------|
|-------6-(6)--------|-4-----------------|-------------------|


                       Interlude
                       1.
  Gb     N.C.           Db         Bbm7        Gb          Db6
   Q   E E +E  E Q      W                      W
|--------------------||----------------------|------------------------||
|--------------------||----------------------|-----------------------o||
|--------------------||----------------------|------------------------||
|--4---4-3-(3)-------||----------------------|------------------------||
|--------------------||----------------------|-----------------------o||
|--------------------||----------------------|------------------------||
|
|  Q   E E  H           W                      W
|--------------------||----------------------|------------------------||
|------x-------------||----------------------|-----------------------o||
|------x-------------||----------------------|------------------------||
|------x-------------||----------------------|------------------------||
|--------------------||----------------------|-----------------------o||
|--------------------||----------------------|------------------------||
|
|                                              |-3-|
|  Q.    E +E  E E E    S  S E E E +E  E E E   S S S E e E E E E  E
|--------------------||----------------------|------------------------||
|-^2-----------------||-9s11s9s4-------------|-----------------9-----o||
|-^3-----------------||-8s10s8s5-5-(5)-------|-6h8p6---------8-8------||
|-^4-------------6---||----------------6---6-|-------8-----8-8---(8)--||
|--------4-(4)-8---8-||------------------8---|---------9-8-8---------o||
|--------------------||----------6-(6)-------|-----------9------------||


  2.
  Db      Bbm             Gb        Db
  Gtr III
  E a E E E +E  E E E   a E E a E E E Q  E
|---------------------|--------------------||
|-6-6h7-6-------------|--------------------||
|-6---6-6-6-(6)-------|---6-6---6-6--------||
|---------8-(8)-8-6-8-|-6h8---6h8-6-6-6----||
|-4-------8-(8)-------|---9-----9-9-6-8--8-||
|---------------------|---------------9----||


  D       Bm            G/D     D
                        |3|
  E a E E E +E  E E E   Q E +E  E +E  E E E
|---------------------|-3-3-(3)-------------||
|-7-7h8-7-------------|-3-3-(3)-7-(7)-------||
|-7---7-7-7-(7)-------|-4-4-(4)-7-(7)-----7-||
|---------9-(9)-9-7-9-|-5-5-(5)-7-(7)-4-7---||
|-5-------9-(9)-------|-5-5-(5)-5-(5)-------||
|---------------------|---------------------||


 3rd Verse
     D       Bm7           G       D
  Gtr I
  W                   Q.     E +H
|------------------|---------------------|
|------------------|---------------------|
|------------------|---------------------|
|-7----------------|--5------4-(4)-------|
|------------------|---------------------|
|------------------|---------------------|
|
| Gtr II
| Q  e E  E  e E e    Q    e E  E  e E e
|------------7---7-|---------------------|
|----7-------7---7-|-------8-------7---7-|
|----7-------7---7-|-------7-------7---7-|
|----7-------7---7-|-------9-------7---7-|
|------------------|---------------------|
|------------------|---------------------|
|
| Gtr III
| Q  E E +E  E Q      E  E Q    E  E E E
|------------------|---------------------|
|------------------|---------------------|
|-7----------------|---------------------|
|-7----------9-----|-----9-x---------7---|
|-5----9-(9)-------|-10------------9---9-|
|------7-(7)-------|---------------------|


                Bm7          G       D
   Q.     E +Q.     E    Q.    E +Q.     E
|---------------------|---------------------|
|---------------------|---------------------|
|---------------------|---------------------|
|--7------4-(4)-------|--5-----4-(4)--------|
|---------------------|---------------------|
|---------------------|---------------------|
|
|  Q    e E  E  e E e    Q   e E  E  e E e
|---------------7---7-|---------------------|
|-------7-------7---7-|------8-------7---7--|
|-------7-------7---7-|------7-------7---7--|
|-------7-------7---7-|------9-------7---7--|
|---------------------|---------------------|
|---------------------|---------------------|
|
|  E  E E E +E  E Q      Q.    E +Q    Q
|---------------------|---------------------|
|---------------------|---------------------|
|---------------------|--7------------------|
|-------7-9-(9)-------|--9------------------|
|-----9---9-(9)-------|-10-----9-(9)--------|
|-10------7-(7)-------|---------------------|


              Bm7            G       D            F#m7     Em7
  W                    Q.      E +H           H         H
|-------------------|----------------------|---------------------|
|-------------------|----------------------|---------------------|
|-------------------|----------------------|---------------------|
|-7-----------------|--5-------4-(4)-------|--7---------5--------|
|-------------------|----------------------|---------------------|
|-------------------|----------------------|---------------------|
|
| Q   e E  E  e E e    Q     e E  E  e E e    Q    e E  E  e E e
|-------------7---7-|----------------------|-------9-------------|
|-----7-------7---7-|--------8-------7---7-|------10-------8---8-|
|-----7-------7---7-|--------7-------7---7-|-------9-------7---7-|
|-----7-------7---7-|--------9-------7---7-|---------------9---9-|
|-------------------|----------------------|---------------7---7-|
|-------------------|----------------------|---------------------|
|
| E E e E +E  E E e    E   Q   E +E  E Q      Q.     E +E  E Q
|-------------------|----------------------|---------------------|
|-----7-------------|----------------------|-10------------------|
|-------7-(7)-------|--7---7-----------7---|--9------7-(7)-------|
|---7---9-(9)-----9-|--9---9---7-(7)-7-----|---------------9-----|
|-5-----9-(9)-------|-10--10---9-(9)-------|--9------7-(7)-------|
|-------7-(7)-------|----------------------|---------------------|


                           4th Verse
  N.C.                          D       Bm7            G       D
   Q     E  E  +E  E Q      W                     Q.     E +H
|------------------------||--------------------|---------------------|
|------------------------||--------------------|---------------------|
|------------------------||--------------------|---------------------|
|--5-----5--4--(4)-------||-7------------------|--5------4-(4)-------|
|------------------------||--------------------|---------------------|
|------------------------||--------------------|---------------------|
|
|  W                        Q   e E  E  e  E e    Q    e E  E  e E e
|------------------------||-------------7----7-|---------------------|
|------------------------||-----7-------7----7-|-------8-------7---7-|
|------------------------||-----7-------7----7-|-------7-------7---7-|
|------------------------||-----7-------7----7-|-------9-------7---7-|
|------------------------||--------------------|---------------------|
|------------------------||--------------------|---------------------|
|
|  E  E  E  E  +E  E E E    E E E E +E  Q.        E  Q   E  E  E Q
|------------------------||--------------------|---------------------|
|------------------------||--------------------|---------------------|
|----------------------7-||-7-7-7--------------|---------------------|
|--------------------7---||-7-7-7-9-(9)-9------|-----9-----------7---|
|-10-10-10--9--(9)-9-----||-------9-(9)--------|-10------------9-----|
|-10-10-10-10-(10)-------||-------7-(7)--------|---------------------|


               Bm7              G       D                  Bm7
   W                    Q.      E +Q.     E    W
|--------------------|----------------------|--------------------|
|--------------------|----------------------|--------------------|
|--------------------|----------------------|--------------------|
|--7-----------------|--5-------4-(4)-------|--7-----------------|
|--------------------|----------------------|--------------------|
|--------------------|----------------------|--------------------|
|
|  Q   e E  E  e E e    Q     e E  E  e E e    Q   e E  E  e E e
|--------------7---7-|----------------------|--------------7---7-|
|------7-------7---7-|--------8-------7---7-|------7-------7---7-|
|------7-------7---7-|--------7-------7---7-|------7-------7---7-|
|------7-------7---7-|--------9-------7---7-|------7-------7---7-|
|--------------------|----------------------|--------------------|
|--------------------|----------------------|--------------------|
|
|  E E E E +E  E Q      E   Q   E  E  E Q      E E E E +E  E E E
|--------------------|----------------------|--------------------|
|--------------------|----------------------|--------------------|
|--------------------|--7---7---------------|----------------7---|
|------7-------9-----|--9---9-----------7---|------7-9-(9)-9---9-|
|----9---9-(9)-------|-10--10---------9-----|----9---9-(9)-------|
|-10-----7-(7)-------|----------------------|-10-----7-(7)-------|


                                            Outro
                                          Freely Q=63
        G       G           F#m7             N.C.
   Q.     E +H          Q.     E  H          W
|---------------------|-------------------||------|
|---------------------|-------------------||------|
|---------------------|-------------------||------|
|--5------4-(4)-------|-7------5----------||------|
|---------------------|-------------------||------|
|---------------------|-------------------||------|
|
|  Q    e E  E  e E e   Q    e E  H          W
|---------------------|------9------------||------|
|-------8-------7---7-|-----10------------||------|
|-------7-------7---7-|------9------------||------|
|-------9-------7---7-|-------------------||------|
|---------------------|-------------------||------|
|---------------------|-------------------||------|
|
|  E  E Q    E  E Q     Q    E E +E  E Q     W
|---------------------|-------------------||------|
|---------------------|-------------------||------|
|--7------------------|-9------7-(7)------||------|
|--9--------------7---|-------------------||------|
|-10------------9-----|-9------7-(7)------||------|
|---------------------|-------------------||------|


  In tempo Q=73        H.=H
     D         Bm7     G/A      D
  Q   H.                +Q    Q    E     E     +Q      +W
|--------------------|------------------------------|---------*|
|--------------------|------------------------------|---------*|
|----14--------------|-(14)--12---12----11----(11)--|-(11)----*|
|--------------------|------------------------------|---------*|
|--------------------|------------------------------|---------*|
|--------------------|------------------------------|---------*|
|
| Q   e  E  E  e e e     H         S  S  S  S   Q      +W
|-----5--------7---7-|-------------------------10---|-(10)----*|
|-----7--------7---7-|---------------------10-------|---------*|
|-----7--------7---7-|-------------------9----------|---------*|
|--------------------|----------------9-------------|---------*|
|--------------------|-------------9----------------|---------*|
|--------------------|------------------------------|---------*|
|
| Q   E  E +E  E E E     Q    E E +H                   +W
|--------------------|------------------------------|---------*|
|--------------------|---3----3-7-(7)---------------|--(7)----*|
|-----7--------7-7-7-|---4----4-7-(7)---------------|--(7)----*|
|-----7--------7-7-7-|---5----5-7-(7)---------------|--(7)----*|
|-5------------------|----------5-(5)---------------|--(5)----*|
|--------7-(7)-------|---5----5---------------------|---------*|            
Submit corrections

↑ Back to top | Tablatures and chords for acoustic guitar and electric guitar, ukulele, drums are parodies/interpretations of the original songs. You may use it for private study, scholarship, research or language learning purposes only