» » »

Illscarlett - N.T.F Tabs

Artists:  A B C D E F G H I J K L M N O P Q R S T U V W X Y Z # 

N.T.F Tabs

(ver. 3) Click to play this song!
Illscarlett
 Rating:
3.8/5 (5 votes)
    N.T.F lessons Tabs too difficult? Try these video lessons and learn fast
                (Intro)
-------------------------------------------------------------------------------
                             NTF (Intro) - IllScarlett
-------------------------------------------------------------------------------


e|---------------------------------------------------------------------------|
B|---6----------6---9---------9---8-------8---9---------9--------------------|
G|------6--------------8-------------8-----------8---------------------------|
D|----------6-------------10------------8-----------10-----------------------|
A|---------------------------------------------------------------------------|
E|---------------------------------------------------------------------------|

e|---------------------------------------------------------------------------|
B|---6----------6---9---------9---8-------8---9------------------------------|
G|------6--------------8-------------8---------------------------------------|
D|----------6-------------10------------8------------------------------------|
A|---------------------------------------------------------------------------|
E|---------------------------------------------------------------------------|


The rest of it's wah, so it's kinda hard to figure out... but if I find it, I'll
let you know. This is a great band, and I thought it sucked that this song wasn't
available in normal tabs.

And naw, I don't know the solo, either. If you can figure it out, god bless ya.
Let me know.
            
Submit corrections

↑ Back to top | Tablatures and chords for acoustic guitar and electric guitar, ukulele, drums are parodies/interpretations of the original songs. You may use it for private study, scholarship, research or language learning purposes only