» » »

Iaxe - Akoy Sayo At Ikay Akin Lamang Tabs

Artists:  A B C D E F G H I J K L M N O P Q R S T U V W X Y Z # 

Akoy Sayo At Ikay Akin Lamang Tabs

(ver. 1) Click to play this song!
Iaxe
 Rating:
4/5 (4 votes)

 Akoy Sayo At Ikay Akin Lamang lessons Tabs too difficult? Try these video lessons and learn fast
 
                (Intro)
-------------------------------------------------------------------------------
                             SONG NAME - Akoy sayo at Ikaw Akin Lamang
-------------------------------------------------------------------------------

Tuning:Standard


e|----------------|-------5-------1--|
B|-2----2--3--4---|-----3---3--------|
G|----1-----------|---2-------2------|
D|----------------|-0-----------3-0--|
A|-0-------2--5---|------------------|
E|----------------|------------------|

e|-----------------|-------5-------1--|
B|-------2--3--4---|-----3---3--------|
G|-----1-----------|---2-------2------|
D|---2-------------|-0-----------3-0--|
A|-0--------2--5---|------------------|
E|-----------------|------------------|
            
Submit corrections


        Akoy Sayo At Ikay Akin Lamang lessons Hard to play? Try these video lessons and learn fast Akoy Sayo At Ikay Akin Lamang lessons
        
↑ Back to top | Tablatures and chords for acoustic guitar and electric guitar, ukulele, drums are parodies/interpretations of the original songs. You may use it for private study, scholarship, research or language learning purposes only