» » »

I Am Giant - City Limits Tabs

Artists:  A B C D E F G H I J K L M N O P Q R S T U V W X Y Z # 

City Limits Tabs

(ver. 2) Click to play this song!
I Am Giant
 Rating:
4/5 (4 votes)

 City Limits lessons Tabs too difficult? Try these video lessons and learn fast
 
                Music: E. Martin, P. Matthews & S. Woolright
Copyright: 2011 I Am Giant Ltd.
Tempo = 152ish

Key:
<> = Natural Harmonic
      
Intro 1:
                                                      
E |--<12>--|             |-------|
B |--<12>--|             |-------|
G |--<12>--|             |-------|
D |--------|             |--<5>--|
A |--------|             |--<5>--|
E |--------|             |-------|
 Let ring for 4 Bars       Let ring for 4 bars

Intro 2:
                                                          
----------------------------|----------------------------|
----------------------------|----------------------------|
--12-12-12-12----12-12-12---|--12-12-12-12----12-12-12---|
----------------------------|----------------------------|
--10-10-10-10----10-10-10---|--10-10-10-10----10-10-10---|
--0--0--0--0-----0--0--0----|--0--0--0--0-----0--0--0----|

                                                          
----------------------------|----------------------------|
----------------------------|----------------------------|
--12-12-12-12----12-12-12---|--12-12-12-12----12-12-12---|
----------------------------|----------------------------|
--10-10-10-10----10-10-10---|--10-10-10-10----10-10-10---|
--0--0--0--0-----0--0--0----|--0--0--0--0-----0--0--0----|

                                                          
----------------------------|----------------------------|
----------------------------|----------------------------|
--12-12-12-12----12-12-12---|--12-12-12-12----12-12-12---|
----------------------------|----------------------------|
--9--9--9--9-----9--9--9----|--9--9--9--9-----9--9--9----|
--10-10-10-10----10-10-10---|--10-10-10-10----10-10-10---|

                                                          
----------------------------|----------------------------|
----------------------------|----------------------------|
--12-12-12-12----12-12-12---|--12-12-12-12----12-12-12---|
----------------------------|----------------------------|
--9--9--9--9-----9--9--9----|--9--9--9--9-----9--9--9----|
--10-10-10-10----10-10-10---|--10-10-10-10----10-10-10---|

Verse 1:
                                                          
----------------------------|----------------------------|
----------------------------|----------------------------|
--12-12-12-12----12-12-12---|--12-12-12-12----12-12-12---|
----------------------------|----------------------------|
--10-10-10-10----10-10-10---|--10-10-10-10----10-10-10---|
--0--0--0--0-----0--0--0----|--0--0--0--0-----0--0--0----|

                                                          
----------------------------|----------------------------|
----------------------------|----------------------------|
--12-12-12-12----12-12-12---|--12-12-12-12----12-12-12---|
----------------------------|----------------------------|
--10-10-10-10----10-10-10---|--10-10-10-10----10-10-10---|
--0--0--0--0-----0--0--0----|--0--0--0--0-----0--0--0----|

                                                          
----------------------------|----------------------------|
----------------------------|----------------------------|
--12-12-12-12----12-12-12---|--12-12-12-12----12-12-12---|
----------------------------|----------------------------|
--9--9--9--9-----9--9--9----|--9--9--9--9-----9--9--9----|
--10-10-10-10----10-10-10---|--10-10-10-10----10-10-10---|

                                                          
----------------------------|----------------------------|
----------------------------|----------------------------|
--12-12-12-12----12-12-12---|--12-12-12-12----12-12-12---|
----------------------------|----------------------------|
--9--9--9--9-----9--9--9----|--9--9--9--9-----9--9--9----|
--10-10-10-10----10-10-10---|--10-10-10-10----10-10-10---|

                                                          
----------------------------|----------------------------|
----------------------------|----------------------------|
--12-12-12-12----12-12-12---|--12-12-12-12----12-12-12---|
----------------------------|----------------------------|
--10-10-10-10----10-10-10---|--10-10-10-10----10-10-10---|
--0--0--0--0-----0--0--0----|--0--0--0--0-----0--0--0----|

                                                          
----------------------------|----------------------------|
----------------------------|----------------------------|
--12-12-12-12----12-12-12---|--12-12-12-12----12-12-12---|
----------------------------|----------------------------|
--10-10-10-10----10-10-10---|--10-10-10-10----10-10-10---|
--0--0--0--0-----0--0--0----|--0--0--0--0-----0--0--0----|

                                                          
----------------------------|----------------------------|
----------------------------|----------------------------|
--12-12-12-12----12-12-12---|--12-12-12-12----12-12-12---|
----------------------------|----------------------------|
--9--9--9--9-----9--9--9----|--9--9--9--9-----9--9--9----|
--10-10-10-10----10-10-10---|--10-10-10-10----10-10-10---|

                                                          
----------------------------|----------------------------|
----------------------------|----------------------------|
--12-12-12-12----12-12-12---|--12-12-12-12----12-12-12---|
----------------------------|----------------------------|
--9--9--9--9-----9--9--9----|--9--9--9--9-----9--9--9----|
--10-10-10-10----10-10-10---|--10-10-10-10----10-10-10---|

Pre-Chorus:
                                                          
----------------------------|----------------------------|
-----8-----8-----8-----8----|-----7-----7-----7-----7----|
--9-----9-----9-----9-------|--9-----9-----9-----9-------|
----------------------------|----------------------------|
----------------------------|----------------------------|
----------------------------|----------------------------|

                                                          
----------------------------|----------------------------|
-----8-----8-----8-----8----|-----7-----7-----7-----7----|
--9-----9-----9-----9-------|--9-----9-----9-----9-------|
----------------------------|----------------------------|
----------------------------|----------------------------|
----------------------------|----------------------------|

                                                                         
----------------------------|----------------------------|--10~---|Let this
-----8-----8-----8-----8----|-----7-----7-----7-----7----|--10~---|chord ring
--9-----9-----9-----9-------|--9-----9-----9-----9-------|--11~---|for 2 bars 
----------------------------|----------------------------|--------|
----------------------------|----------------------------|--------|
----------------------------|----------------------------|--------|

Big Riff 1:
                                                          
----------------------------|----------------------------|
----------------------------|----------------------------|
----------------------------|----------------------------|
----------------------------|----------------------------|
-----------------------10---|----------------------------|
--0--10-12-0--10-12-0-------|--12-0--10-0--10-12-0--10---|

                                                          
----------------------------|----------------------------|
----------------------------|----------------------------|
----------------------------|----------------------------|
----------------------------|----------------------------|
-----------------------10---|----------------------------|
--0--10-12-0--10-12-0-------|--12-0--10-0--10-12-0--10---|

                                                          
----------------------------|----------------------------|
----------------------------|----------------------------|
----------------------------|----------------------------|
--0--5--7--0--5--7--0--11---|--7--0--5--0--5--7--0--5----|
--0--3--5--0--3--5--0--9----|--5--0--3--0--3--5--0--3----|
----------------------------|----------------------------|

                                                          
----------------------------|----------------------------|
----------------------------|----------------------------|
----------------------------|----------------------------|
--0--5--7--0--5--7--0--11---|--7--0--5--0--5--7--0--5----|
--0--3--5--0--3--5--0--9----|--5--0--3--0--3--5--0--3----|
----------------------------|----------------------------|

Verse 2:
                                                          
----------------------------|----------------------------|
----------------------------|----------------------------|
--12-12-12-12----12-12-12---|--12-12-12-12----12-12-12---|
----------------------------|----------------------------|
--10-10-10-10----10-10-10---|--10-10-10-10----10-10-10---|
--0--0--0--0-----0--0--0----|--0--0--0--0-----0--0--0----|

                                                          
----------------------------|----------------------------|
----------------------------|----------------------------|
--12-12-12-12----12-12-12---|--12-12-12-12----12-12-12---|
----------------------------|----------------------------|
--10-10-10-10----10-10-10---|--10-10-10-10----10-10-10---|
--0--0--0--0-----0--0--0----|--0--0--0--0-----0--0--0----|

                                                          
----------------------------|----------------------------|
----------------------------|----------------------------|
--12-12-12-12----12-12-12---|--12-12-12-12----12-12-12---|
----------------------------|----------------------------|
--9--9--9--9-----9--9--9----|--9--9--9--9-----9--9--9----|
--10-10-10-10----10-10-10---|--10-10-10-10----10-10-10---|

                                                          
----------------------------|----------------------------|
----------------------------|----------------------------|
--12-12-12-12----12-12-12---|--12-12-12-12----12-12-12---|
----------------------------|----------------------------|
--9--9--9--9-----9--9--9----|--9--9--9--9-----9--9--9----|
--10-10-10-10----10-10-10---|--10-10-10-10----10-10-10---|

Pre-chorus 2:
                                                          
----------------------------|----------------------------|
-----8-----8-----8-----8----|-----7-----7-----7-----7----|
--9-----9-----9-----9-------|--9-----9-----9-----9-------|
----------------------------|----------------------------|
----------------------------|----------------------------|
----------------------------|----------------------------|

                                                          
----------------------------|----------------------------|
-----8-----8-----8-----8----|-----7-----7-----7-----7----|
--9-----9-----9-----9-------|--9-----9-----9-----9-------|
----------------------------|----------------------------|
----------------------------|----------------------------|
----------------------------|----------------------------|

     
----------------------------|----------------------------|--10~---|Let this
-----8-----8-----8-----8----|-----7-----7-----7-----7----|--10~---|chord ring
--9-----9-----9-----9-------|--9-----9-----9-----9-------|--11~---|for 2 bars 
----------------------------|----------------------------|--------|
----------------------------|----------------------------|--------|
----------------------------|----------------------------|--------|

Big Riff 2:
                                                          
----------------------------|----------------------------|
----------------------------|----------------------------|
----------------------------|----------------------------|
----------------------------|----------------------------|
-----------------------10---|----------------------------|
--0--10-12-0--10-12-0-------|--12-0--10-0--10-12-0--10---|

                                                          
----------------------------|----------------------------|
----------------------------|----------------------------|
----------------------------|----------------------------|
----------------------------|----------------------------|
-----------------------10---|----------------------------|
--0--10-12-0--10-12-0-------|--12-0--10-0--10-12-0--10---|

                                                          
----------------------------|----------------------------|
----------------------------|----------------------------|
----------------------------|----------------------------|
--0--5--7--0--5--7--0--11---|--7--0--5--0--5--7--0--5----|
--0--3--5--0--3--5--0--9----|--5--0--3--0--3--5--0--3----|
----------------------------|----------------------------|

                                                          
----------------------------|----------------------------|
----------------------------|----------------------------|
----------------------------|----------------------------|
--0--5--7--0--5--7--0--11---|--7--0--5--0--5--7--0--5----|
--0--3--5--0--3--5--0--9----|--5--0--3--0--3--5--0--3----|
----------------------------|----------------------------|

Chorus: Top Guitar is Lead
        Bottom Guitar is Rhythm
                                                          
|----------------------------|----------------------------|
|----------------------------|----------------------------|
|--12-12-12-12-12-12-12-12---|--12-12-12-12-12-12-12-12---|
|----------------------------|----------------------------|
|--10-10-10-10-10-10-10-10---|--10-10-10-10-10-10-10-10---|
|----------------------------|----------------------------|
|
|---------------------------|---------------------------|
|---------------------------|---------------------------|
|---------------------------|---------------------------|
|--5--5--5--5--5--5--5--5---|--5--5--5--5--5--5--5--5---|
|--5--5--5--5--5--5--5--5---|--5--5--5--5--5--5--5--5---|
|--3--3--3--3--3--3--3--3---|--3--3--3--3--3--3--3--3---|
                                                          
|----------------------------|----------------------------|
|----------------------------|----------------------------|
|--12-12-12-12-12-12-12-12---|--12-12-12-12-12-12-12-12---|
|----------------------------|----------------------------|
|--9--9--9--9--9--9--9--9----|--9--9--9--9--9--9--9--9----|
|--10-10-10-10-10-10-10-10---|--10-10-10-10-10-10-10-10---|
|                                                          
|----------------------------|----------------------------|
|----------------------------|----------------------------|
|--7--7--7--7--7--7--7--7----|--7--7--7--7--7--7--7--7----|
|--7--7--7--7--7--7--7--7----|--7--7--7--7--7--7--7--7----|
|--5--5--5--5--5--5--5--5----|--5--5--5--5--5--5--5--5----|
|----------------------------|----------------------------|
                                                          
|----------------------------|----------------------------|
|----------------------------|----------------------------|
|--12-12-12-12-12-12-12-12---|--12-12-12-12-12-12-12-12---|
|----------------------------|----------------------------|
|--10-10-10-10-10-10-10-10---|--10-10-10-10-10-10-10-10---|
|--0--0--0--0--0--0--0--0----|--0--0--0--0--0--0--0--0----|
|
|----------------------------|----------------------------|
|----------------------------|----------------------------|
|--9--9--9--9--9--9--9--9----|--9--9--9--9--9--9--9--9----|
|--9--9--9--9--9--9--9--9----|--9--9--9--9--9--9--9--9----|
|--7--7--7--7--7--7--7--7----|--7--7--7--7--7--7--7--7----|
|--0--0--0--0--0--0--0--0----|--0--0--0--0--0--0--0--0----|
                                                          
|----------------------------|----------------------------|
|----------------------------|----------------------------|
|--14-14-14-14-14-14-14-14---|--12-12-12-12-12-12-12-12---|
|----------------------------|----------------------------|
|--12-12-12-12-12-12-12-12---|--10-10-10-10-10-10-10-10---|
|--0--0--0--0--0--0--0--0----|--0--0--0--0--0--0--0--0----|
|
|----------------------------|----------------------------|
|----------------------------|----------------------------|
|--9--9--9--9--9--9--9--9----|--9--9--9--9--9--9--9--9----|
|--9--9--9--9--9--9--9--9----|--9--9--9--9--9--9--9--9----|
|--7--7--7--7--7--7--7--7----|--7--7--7--7--7--7--7--7----|
|--0--0--0--0--0--0--0--0----|--0--0--0--0--0--0--0--0----|
                                                          

|----------------------------|----------------------------|
|----------------------------|----------------------------|
|--12-12-12-12-12-12-12-12---|--12-12-12-12-12-12-12-12---|
|----------------------------|----------------------------|
|--10-10-10-10-10-10-10-10---|--10-10-10-10-10-10-10-10---|
|----------------------------|----------------------------|
|
|---------------------------|---------------------------|
|---------------------------|---------------------------|
|---------------------------|---------------------------|
|--5--5--5--5--5--5--5--5---|--5--5--5--5--5--5--5--5---|
|--5--5--5--5--5--5--5--5---|--5--5--5--5--5--5--5--5---|
|--3--3--3--3--3--3--3--3---|--3--3--3--3--3--3--3--3---|
                                                          
|----------------------------|----------------------------|
|----------------------------|----------------------------|
|--12-12-12-12-12-12-12-12---|--12-12-12-12-12-12-12-12---|
|----------------------------|----------------------------|
|--9--9--9--9--9--9--9--9----|--9--9--9--9--9--9--9--9----|
|--10-10-10-10-10-10-10-10---|--10-10-10-10-10-10-10-10---|
|                                                          
|----------------------------|----------------------------|
|----------------------------|----------------------------|
|--7--7--7--7--7--7--7--7----|--7--7--7--7--7--7--7--7----|
|--7--7--7--7--7--7--7--7----|--7--7--7--7--7--7--7--7----|
|--5--5--5--5--5--5--5--5----|--5--5--5--5--5--5--5--5----|
|----------------------------|----------------------------|
                                                          
|----------------------------|----------------------------|
|----------------------------|----------------------------|
|--12-12-12-12-12-12-12-12---|--12-12-12-12-12-12-12-12---|
|----------------------------|----------------------------|
|--10-10-10-10-10-10-10-10---|--10-10-10-10-10-10-10-10---|
|--0--0--0--0--0--0--0--0----|--0--0--0--0--0--0--0--0----|
|
|----------------------------|----------------------------|
|----------------------------|----------------------------|
|--9--9--9--9--9--9--9--9----|--9--9--9--9--9--9--9--9----|
|--9--9--9--9--9--9--9--9----|--9--9--9--9--9--9--9--9----|
|--7--7--7--7--7--7--7--7----|--7--7--7--7--7--7--7--7----|
|--0--0--0--0--0--0--0--0----|--0--0--0--0--0--0--0--0----|
                                                          
|----------------------------|----------------------------|
|----------------------------|----------------------------|
|--14-14-14-14-14-14-14-14---|--12-12-12-12-12-12-12-12---|
|----------------------------|----------------------------|
|--12-12-12-12-12-12-12-12---|--10-10-10-10-10-10-10-10---|
|--0--0--0--0--0--0--0--0----|--0--0--0--0--0--0--0--0----|
|
|----------------------------|----------------------------|
|----------------------------|----------------------------|
|--9--9--9--9--9--9--9--9----|--9--9--9--9--9--9--9--9----|
|--9--9--9--9--9--9--9--9----|--9--9--9--9--9--9--9--9----|
|--7--7--7--7--7--7--7--7----|--7--7--7--7--7--7--7--7----|
|--0--0--0--0--0--0--0--0----|--0--0--0--0--0--0--0--0----|

Interlude:
                                                          
----------------------------|----------------------------|
-----8-----8-----8-----8----|-----7-----7-----7-----7----|
--9-----9-----9-----9-------|--9-----9-----9-----9-------|
----------------------------|----------------------------|
----------------------------|----------------------------|
----------------------------|----------------------------|

                                                          
----------------------------|----------------------------|
-----8-----8-----8-----8----|-----7-----7-----7-----7----|
--9-----9-----9-----9-------|--9-----9-----9-----9-------|
----------------------------|----------------------------|
----------------------------|----------------------------|
----------------------------|----------------------------|

                                                          
----------------------------|----------------------------|
-----8-----8-----8-----8----|-----7-----7-----7-----7----|
--9-----9-----9-----9-------|--9-----9-----9-----9-------|
----------------------------|----------------------------|
----------------------------|----------------------------|
----------------------------|----------------------------|

                                                          
----------------------------|----------------------------|
-----8-----8-----8-----8----|-----7-----7-----7-----7----|
--9-----9-----9-----9-------|--9-----9-----9-----9-------|
----------------------------|----------------------------|
----------------------------|----------------------------|
----------------------------|----------------------------|

Verse 3: (Interlude guitar plays along with the regular verse guitar)
                                                          
|----------------------------|----------------------------|
|-----8-----8-----8-----8----|-----7-----7-----7-----7----|
|--9-----9-----9-----9-------|--9-----9-----9-----9-------|
|----------------------------|----------------------------|
|----------------------------|----------------------------|
|----------------------------|----------------------------|
|
|----------------------------|----------------------------|
|----------------------------|----------------------------|
|--12-12-12-12----12-12-12---|--12-12-12-12----12-12-12---|
|----------------------------|----------------------------|
|--10-10-10-10----10-10-10---|--10-10-10-10----10-10-10---|
|--0--0--0--0-----0--0--0----|--0--0--0--0-----0--0--0----|
                                                          
|----------------------------|----------------------------|
|-----8-----8-----8-----8----|-----7-----7-----7-----7----|
|--9-----9-----9-----9-------|--9-----9-----9-----9-------|
|----------------------------|----------------------------|
|----------------------------|----------------------------|
|----------------------------|----------------------------|
|
|----------------------------|----------------------------|
|----------------------------|----------------------------|
|--12-12-12-12----12-12-12---|--12-12-12-12----12-12-12---|
|----------------------------|----------------------------|
|--10-10-10-10----10-10-10---|--10-10-10-10----10-10-10---|
|--0--0--0--0-----0--0--0----|--0--0--0--0-----0--0--0----|

|----------------------------|----------------------------|
|-----8-----8-----8-----8----|-----7-----7-----7-----7----|
|--9-----9-----9-----9-------|--9-----9-----9-----9-------|
|----------------------------|----------------------------|
|----------------------------|----------------------------|
|----------------------------|----------------------------|
|
|----------------------------|----------------------------|
|----------------------------|----------------------------|
|--12-12-12-12----12-12-12---|--12-12-12-12----12-12-12---|
|----------------------------|----------------------------|
|--9--9--9--9-----9--9--9----|--9--9--9--9-----9--9--9----|
|--10-10-10-10----10-10-10---|--10-10-10-10----10-10-10---|

|----------------------------|----------------------------|
|-----8-----8-----8-----8----|-----7-----7-----7-----7----|
|--9-----9-----9-----9-------|--9-----9-----9-----9-------|
|----------------------------|----------------------------|
|----------------------------|----------------------------|
|----------------------------|----------------------------|
|
|----------------------------|----------------------------|The whole of
|----------------------------|----------------------------|verse 3 is now repeated
|--12-12-12-12----12-12-12---|--12-12-12-12----12-12-12---|just with different
|----------------------------|----------------------------|lyrics.
|--9--9--9--9-----9--9--9----|--9--9--9--9-----9--9--9----|
|--10-10-10-10----10-10-10---|--10-10-10-10----10-10-10---|                            

Big Riff 3:
                              
----------------------------|----------------------------|
----------------------------|----------------------------|
----------------------------|----------------------------|
----------------------------|----------------------------|
-----------------------10---|----------------------------|
--0--10-12-0--10-12-0-------|--12-0--10-0--10-12-0--10---|

                                                          
----------------------------|----------------------------|
----------------------------|----------------------------|
----------------------------|----------------------------|
----------------------------|----------------------------|
-----------------------10---|----------------------------|
--0--10-12-0--10-12-0-------|--12-0--10-0--10-12-0--10---|

                                                          
----------------------------|----------------------------|
----------------------------|----------------------------|
----------------------------|----------------------------|
--0--5--7--0--5--7--0--11---|--7--0--5--0--5--7--0--5----|
--0--3--5--0--3--5--0--9----|--5--0--3--0--3--5--0--3----|
----------------------------|----------------------------|

                                                          
----------------------------|----------------------------|
----------------------------|----------------------------|
----------------------------|----------------------------|
--0--5--7--0--5--7--0--11---|--7--0--5--0--5--7--0--5----|
--0--3--5--0--3--5--0--9----|--5--0--3--0--3--5--0--3----|
----------------------------|----------------------------|

Chorus 2: Top Guitar is Lead
          Bottom Guitar is Rhythm
                                                          
|----------------------------|----------------------------|
|----------------------------|----------------------------|
|--12-12-12-12-12-12-12-12---|--12-12-12-12-12-12-12-12---|
|----------------------------|----------------------------|
|--10-10-10-10-10-10-10-10---|--10-10-10-10-10-10-10-10---|
|----------------------------|----------------------------|
|
|---------------------------|---------------------------|
|---------------------------|---------------------------|
|---------------------------|---------------------------|
|--5--5--5--5--5--5--5--5---|--5--5--5--5--5--5--5--5---|
|--5--5--5--5--5--5--5--5---|--5--5--5--5--5--5--5--5---|
|--3--3--3--3--3--3--3--3---|--3--3--3--3--3--3--3--3---|
                                                          
|----------------------------|----------------------------|
|----------------------------|----------------------------|
|--12-12-12-12-12-12-12-12---|--12-12-12-12-12-12-12-12---|
|----------------------------|----------------------------|
|--9--9--9--9--9--9--9--9----|--9--9--9--9--9--9--9--9----|
|--10-10-10-10-10-10-10-10---|--10-10-10-10-10-10-10-10---|
|                                                          
|----------------------------|----------------------------|
|----------------------------|----------------------------|
|--7--7--7--7--7--7--7--7----|--7--7--7--7--7--7--7--7----|
|--7--7--7--7--7--7--7--7----|--7--7--7--7--7--7--7--7----|
|--5--5--5--5--5--5--5--5----|--5--5--5--5--5--5--5--5----|
|----------------------------|----------------------------|
                                                          
|----------------------------|----------------------------|
|----------------------------|----------------------------|
|--12-12-12-12-12-12-12-12---|--12-12-12-12-12-12-12-12---|
|----------------------------|----------------------------|
|--10-10-10-10-10-10-10-10---|--10-10-10-10-10-10-10-10---|
|--0--0--0--0--0--0--0--0----|--0--0--0--0--0--0--0--0----|
|
|----------------------------|----------------------------|
|----------------------------|----------------------------|
|--9--9--9--9--9--9--9--9----|--9--9--9--9--9--9--9--9----|
|--9--9--9--9--9--9--9--9----|--9--9--9--9--9--9--9--9----|
|--7--7--7--7--7--7--7--7----|--7--7--7--7--7--7--7--7----|
|--0--0--0--0--0--0--0--0----|--0--0--0--0--0--0--0--0----|
                                                          
|----------------------------|----------------------------|
|----------------------------|----------------------------|
|--14-14-14-14-14-14-14-14---|--12-12-12-12-12-12-12-12---|
|----------------------------|----------------------------|
|--12-12-12-12-12-12-12-12---|--10-10-10-10-10-10-10-10---|
|--0--0--0--0--0--0--0--0----|--0--0--0--0--0--0--0--0----|
|
|----------------------------|----------------------------|
|----------------------------|----------------------------|
|--9--9--9--9--9--9--9--9----|--9--9--9--9--9--9--9--9----|
|--9--9--9--9--9--9--9--9----|--9--9--9--9--9--9--9--9----|
|--7--7--7--7--7--7--7--7----|--7--7--7--7--7--7--7--7----|
|--0--0--0--0--0--0--0--0----|--0--0--0--0--0--0--0--0----|
                                                          

|----------------------------|----------------------------|
|----------------------------|----------------------------|
|--12-12-12-12-12-12-12-12---|--12-12-12-12-12-12-12-12---|
|----------------------------|----------------------------|
|--10-10-10-10-10-10-10-10---|--10-10-10-10-10-10-10-10---|
|----------------------------|----------------------------|
|
|---------------------------|---------------------------|
|---------------------------|---------------------------|
|---------------------------|---------------------------|
|--5--5--5--5--5--5--5--5---|--5--5--5--5--5--5--5--5---|
|--5--5--5--5--5--5--5--5---|--5--5--5--5--5--5--5--5---|
|--3--3--3--3--3--3--3--3---|--3--3--3--3--3--3--3--3---|
                                                          
|----------------------------|----------------------------|
|----------------------------|----------------------------|
|--12-12-12-12-12-12-12-12---|--12-12-12-12-12-12-12-12---|
|----------------------------|----------------------------|
|--9--9--9--9--9--9--9--9----|--9--9--9--9--9--9--9--9----|
|--10-10-10-10-10-10-10-10---|--10-10-10-10-10-10-10-10---|
|                                                          
|----------------------------|----------------------------|
|----------------------------|----------------------------|
|--7--7--7--7--7--7--7--7----|--7--7--7--7--7--7--7--7----|
|--7--7--7--7--7--7--7--7----|--7--7--7--7--7--7--7--7----|
|--5--5--5--5--5--5--5--5----|--5--5--5--5--5--5--5--5----|
|----------------------------|----------------------------|
                                                          
|----------------------------|----------------------------|
|----------------------------|----------------------------|
|--12-12-12-12-12-12-12-12---|--12-12-12-12-12-12-12-12---|
|----------------------------|----------------------------|
|--10-10-10-10-10-10-10-10---|--10-10-10-10-10-10-10-10---|
|--0--0--0--0--0--0--0--0----|--0--0--0--0--0--0--0--0----|
|
|----------------------------|----------------------------|
|----------------------------|----------------------------|
|--9--9--9--9--9--9--9--9----|--9--9--9--9--9--9--9--9----|
|--9--9--9--9--9--9--9--9----|--9--9--9--9--9--9--9--9----|
|--7--7--7--7--7--7--7--7----|--7--7--7--7--7--7--7--7----|
|--0--0--0--0--0--0--0--0----|--0--0--0--0--0--0--0--0----|
                                                          
|----------------------------|----------------------------|
|----------------------------|----------------------------|
|--14-14-14-14-14-14-14-14---|--12-12-12-12-12-12-12-12---|
|----------------------------|----------------------------|
|--12-12-12-12-12-12-12-12---|--10-10-10-10-10-10-10-10---|
|--0--0--0--0--0--0--0--0----|--0--0--0--0--0--0--0--0----|
|
|----------------------------|----------------------------|
|----------------------------|----------------------------|
|--9--9--9--9--9--9--9--9----|--9--9--9--9--9--9--9--9----|
|--9--9--9--9--9--9--9--9----|--9--9--9--9--9--9--9--9----|
|--7--7--7--7--7--7--7--7----|--7--7--7--7--7--7--7--7----|
|--0--0--0--0--0--0--0--0----|--0--0--0--0--0--0--0--0----|

Big Riff 4:
                                                          
----------------------------|----------------------------|
----------------------------|----------------------------|
----------------------------|----------------------------|
----------------------------|----------------------------|
-----------------------10---|----------------------------|
--0--10-12-0--10-12-0-------|--12-0--10-0--10-12-0--10---|

                                                          
----------------------------|----------------------------|
----------------------------|----------------------------|
----------------------------|----------------------------|
----------------------------|----------------------------|
-----------------------10---|----------------------------|
--0--10-12-0--10-12-0-------|--12-0--10-0--10-12-0--10---|

                                                          
----------------------------|----------------------------|
----------------------------|----------------------------|
----------------------------|----------------------------|
----------------------------|----------------------------|
-----------------------10---|----------------------------|
--0--10-12-0--10-12-0-------|--12-0--10-0--10-12-0--10---|

                                                          
----------------------------|----------------------------|
----------------------------|----------------------------|
----------------------------|----------------------------|
----------------------------|----------------------------|
-----------------------10---|----------------------------|
--0--10-12-0--10-12-0-------|--12-0--10-0--10-12-0--10---|

Outro:
                                                          
----------------------------|----------------------------|
-----8-----8-----8-----8----|-----7-----7-----7-----7----|
--9-----9-----9-----9-------|--9-----9-----9-----9-------|
----------------------------|----------------------------|
----------------------------|----------------------------|
----------------------------|----------------------------|

                                                          
----------------------------|----------------------------|
-----8-----8-----8-----8----|-----7-----7-----7-----7----|
--9-----9-----9-----9-------|--9-----9-----9-----9-------|
----------------------------|----------------------------|
----------------------------|----------------------------|
----------------------------|----------------------------|

                                                          
----------------------------|----------------------------|
-----8-----8-----8-----8----|-----7-----7-----7-----7----|
--9-----9-----9-----9-------|--9-----9-----9-----9-------|
----------------------------|----------------------------|
----------------------------|----------------------------|
----------------------------|----------------------------|

                                                            
----------------------------|----------------------------|--7~----||
-----8-----8-----8-----8----|-----7-----7-----7-----7----|--8~----||
--9-----9-----9-----9-------|--9-----9-----9-----9-------|--9~----||
----------------------------|----------------------------|--------||
----------------------------|----------------------------|--------||
----------------------------|----------------------------|--------||

Thank You for using my tab, I guarantee you it is something like 98-100% accurate :D
            
Submit corrections


        City Limits lessons Hard to play? Try these video lessons and learn fast City Limits lessons
        
↑ Back to top | Tablatures and chords for acoustic guitar and electric guitar, ukulele, drums are parodies/interpretations of the original songs. You may use it for private study, scholarship, research or language learning purposes only