Home » H » Hypocrisy »

Hypocrisy - Fire In The Sky Tabs

Artists:  A B C D E F G H I J K L M N O P Q R S T U V W X Y Z # 

Fire In The Sky Tabs

(ver. 2) Click to play this song!
Hypocrisy
        Fire in the sky- Hypocrisy
-------------------------------------------------------------------------------

Tuning:standar



             
          RIFF A

         
E|------------------------------------------------------------------|
B|------------------------------------------------------------------|
G|------------------------------------------------------------------|guitar 1
D|---2----2-5----4-----2-----------2----2-5-----4-------------------|  X4
A|--2-2--2--------5-----3-5-2----2--2--2---------5----3--2----------|
E|-0----0------0-----0---------0------0-------0-----0--5--3---------|


E|-----------------------------------------------------------|
B|-----------------------------------------------------------|
G|---------------------9/--7/4-------------------------------|
D|-2-------------------7/--5/2--2---------------------5--4---|guitar 2 part A
A|-2----------------------------2---------------------3--4---|  X2 
E|-0-----------0-0--------------0---------------0-0----------|
               . .                              . .

                             THEN

|----------------------------------------------------------|
|----------------------------------------------------------|
|----------7--6---------------------7--6-------------------|
|---9-----9----7--9-----------9----9----7------------------|guitar 2 part B
|--9-9---9---------10-12-9---9-9--9-----------10---8-------|  X2
|-0-----0----0---0----------0----0----0-----0---11---10----|





         RIFF B



E|-------------------------------------------------------------|
B|-------------------------------------------------------------|
G|-------------------------------------------------------------|guitar 1
D|-------------------------------------------------------------|X4
A|-2-2-5-4--2-0------2-2-5-4--2-0------------------------------|
E|--2------2----2-3---2------2----3-2--------------------------|


E|-------------------------------------------------------------|
B|-------------------------------------------------------------|
G|-------------------------------------------------------------|guitar 2
D|-4--7--4--9--7-9---4--7--4--7---9-7--------------------------|X4
A|-2--5--2--7--5-4---2--5--2--5---7-5--------------------------|
E|-2--5--2--7--5-4---2--5--2--5---7-5--------------------------|



RIFF C

both guitars x1
E|-------------------------------------------------------------------|
B|-------------------------------------------------------------------|
G|-|---------repeat--3-times----------|------------------------------|
D|-4-4-4-4-4-4-4-4-5-5-5-2-2-2-2--2-5/4--4-4-4-4-4-4-4-5-5-5-7-7-7-7-|
A|-4-4-4-4-4-4-4-4-5-5-5-2-2-2-2--2-5/4--4-4-4-4-4-4-4-5-5-5-7-7-7-7-|
E|-2-2-2-2-2-2-2-2-3-3-3-0-0-0-0--0-3/2--2-2-2-2-2-2-2-3-3-3-5-5-5-5-|



RIFF D

guitar 1 X2
E|----------------------------------------------------------------------------|
B|----------------------------------------------------------------------------|
G|----------------------------------------------------------------------------|
D|-9--9-9-9-9-9--7--5-5-5-5-5-4-4-4-4--9--9-9-9-9-9--5--7-7-7-7-7--5--4-4-4-4-|
A|-9--9-9-9-9-9--7--5-5-5-5-5-4-4-4-4--9--9-9-9-9-9--5--7-7-7-7-7--5--4-4-4-4-|
E|-7--7-7-7-7-7--5--3-3-3-3-3-2-2-2-2--7--7-7-7-7-7--3--5-5-5-5-5--3--2-2-2-2-|
      . . . . .                           . . . . .  

E|----------------------------------------------------------------|
B|-----------------------------------------------------------------|
G|-4--4-4-4-4-4------------------------4--4-4-4-4-4-----------------|guitar 2
D|-4--4-4-4-4-4--7--5-5-5-5-5-4-4-4-4--4--4-4-4-4-4--5--7-7-7-7-7--5--4-4-4-4-|X2       
A|-2--2-2-2-2-2--7--5-5-5-5-5-4-4-4-4--2--2-2-2-2-2--5--7-7-7-7-7--5--4-4-4-4-|
E|---------------5--3-3-3-3-3-2-2-2-2----------------3--5-5-5-5-5--3--2-2-2-2-|

REPEAT RIFF AX2   without part 2 (GUITAR 2)
       RIFF BX2  
       RIFF CX1   but in a row
       RIFF DX4 

RIFF E

guitar 1 or 2 make a noise with this riff at the begin 

E|-------------------------------------------------------------|
B|-------------------------------------------------------------|
G|-4-4-4--4-4--6-6-6--6-6--7-7-7--7-7--10-10-10--11-11-11------|both guitars
D|-4-4-4--4-4--6-6-6--6-6--7-7-7--7-7--10-10-10--11-11-11------|x4
A|-2-2-2--2-2--4-4-4--4-4--5-5-5--5-5--8--8--8---9--9--9-------|
E|-2-2-2--2-2--4-4-4--4-4--5-5-5--5-5--8--8--8---9--9--9-------|


END WITH RIFF D



| /  slide up
| \  slide down
| h  hammer-on
| p  pull-off
| ~  vibrato
| +  harmonic
| .  palm mute
===============================================================================
            
Submit corrections

↑ Back to top | Tablatures and chords for acoustic guitar and electric guitar, ukulele, drums are parodies/interpretations of the original songs. You may use it for private study, scholarship, research or language learning purposes only