» » »

Hurt - Rapture Tabs

Artists:  A B C D E F G H I J K L M N O P Q R S T U V W X Y Z # 

Rapture Tabs

(ver. 3) Click to play this song!
Hurt
 Rating:
3.7/5 (6 votes)

 Rapture lessons Tabs too difficult? Try these video lessons and learn fast
 
                Tune this to Drop C

This is my first tab, so im still new to this 
but this is my cr*ppy attempt at it , change as needed
and listen to the song as you read this tab so you understand it better




Clean 
D#|-----------------------|
A#|-----------------------|
F#|-----------------------|     3x
C#|--0---0---0------------| <-- some what lighter on this string
G#|-----------------------|
C#|0---0---0---0-3--------|


D#|--------------------------------|
A#|--------------------------------|
F#|--------------------------------|
C#|-00--00--0-0-0-0----00-00-0-0---|
G#|-00--00--0-0-0-0----00-00-0-0---|
C#|-00--00--0-0-0-0----00-00-0-0---|
  

D#|--------------------------------------------------|
A#|-Let Ring-----------------------------------------|
F#|-7--------7/14--14/12--12/10-10/9-7/10--10/9-9/7--|
C#|--------------------------------------------------|
G#|-5--------5/12--12/10--10/8--8-/7-7/8----8/7-7/5--|
C#|--------------------------------------------------|


================================================================


verse           *** = Plam mute
D#|-----------------------------------------------|
A#|-----------------------------------------------|
F#|-----------------------------------------------|
C#|-0-00000-0-00000-3---0-00000-0-00000-3h5-------|
G#|-0-00000-0-00000-3---0-00000-0-00000-3h5-------|
C#|-0-00000-0-00000-3---0-00000-0-00000-3h5-------|
      *****   *****       *****   *****
  
                                                            THe song is built around this riff
prechorus                                                   Change these two up to figure out 
D#|--------------------------------------------------|       what goes were
A#|--------------------------------------------------|
F#|--------------------------------------------------|
C#|-0000-3-0000-3-00-0h3-----------------------------|
G#|-0000-3-0000-3-00-0h3-----------------------------|
C#|-0000-3-0000-3-00-0h3-----------------------------|

==============================================================


Interlude type part , Undistorted part 
D#|--------------------------------------------------|
A#|--------------------------------------------------| Im not really sure on this part
F#|---000-3333-22222---------------------------------| im just useing somehting that sounds 
C#|---000-3333-22222---------------------------------| like a fill
G#|---000-3333-22222---------------------------------|
C#|--------------------------------------------------|
        (((Lightly Palm Mute this part)))



Part Near the end
D#|----------------------------------------------------------|
A#|----------------------------------------------------------|
F#|----------------------------------------------------------|
C#|-7-7-7-7-7-9-9-9-9-9-10-10-10-10-10-10-/-12-12-12-12-12---|
G#|-5-5-5-5-5-7-7-7-7-7-8--8--8--8--8--8--/-10-10-10-10-10---|
C#|----------------------------------------------------------|

D#|----------------------------------------------------------------|
A#|----------------------------------------------------------------|
F#|----------------------------------------------------------------|
C#|-14-14-14-14-12-12-12-12-10-10-10-10-9-9-9-9-7-7-7-7-5-5-5-5-7-7|
G#|-12-12-12-12-10-10-10-10-8--8--8--8--7-7-7-7-5-5-5-5-3-3-3-3-5-5|
C#|----------------------------------------------------------------|


Outtro , and again im not 100% sure
D#|--------------------------------------------------|
A#|--------------------------------------------------|
F#|---000-3333-22222---------------------------------| 
C#|---000-3333-22222---------------------------------| 
G#|---000-3333-22222---------------------------------|
C#|--------------------------------------------------|
         Lightly Palm Mute this part
            
Submit corrections


        Rapture lessons Hard to play? Try these video lessons and learn fast Rapture lessons
        
↑ Back to top | Tablatures and chords for acoustic guitar and electric guitar, ukulele, drums are parodies/interpretations of the original songs. You may use it for private study, scholarship, research or language learning purposes only