» » »

Hurt - Rapture Tabs

Artists:  A B C D E F G H I J K L M N O P Q R S T U V W X Y Z # 

Rapture Tabs

(ver. 1) Click to play this song!
Hurt
 Rating:
3.4/5 (9 votes)

 Rapture lessons Tabs too difficult? Try these video lessons and learn fast
 
                

||-------------------------------------------------------------------------||
||-------------------------------------------------------------------------||


Tuning: Drop D ½ step down (Eb)
Guitar 1: electric, heavy destortion (echo pedal)
Guitar 2: electric, medium distortion



Intro

 Guitar 1(echo effect)
|--------------------------------|
|--------------------------------|
|--------------------------------| 8x
|--0---0---0---------------------|
|--------------------------------|
|0---0---0---0—3b~~~-------------|

 Guitar 1
|---------------------------------------|
|---------------------------------------|
|---------------------------------------|
|-0-0--0-0--0-0-0-0------0-0--0-0--0-0--|
|-0-0--0-0--0-0-0-0------0-0--0-0--0-0--|
|-0-0--0-0--0-0-0-0------0-0--0-0--0-0--|
  x x  x x  x x x x      x x  x x  x x

 Guitar 1
|---------------------------------------------------|
|---------------------------------------------------|
|---------------------------------------------------|
|-0-0--0-0--0-0-0-0------0-0--0-0--0-0--0-0-3-5-0-3-|
|-0-0--0-0--0-0-0-0------0-0--0-0--0-0--0-0-3-5-0-3-|
|-0-0--0-0--0-0-0-0------0-0--0-0--0-0--0-0-3-5-0-3-|
  x x  x x  x x x x      x x  x x  x x  x x x x x x
 
 Guitar 1
|-------------------------------------------------------|
|-------------------------------------------------------|
|---------------------10-/-5----------------------5-/-7-|
|-0-0--0-0--0-0--0-0--x--/-x--0-0--0-0--0-0--0-0--------|
|-0-0--0-0--0-0--0-0--8--/-3--0-0--0-0--0-0--0-0--3-/-5-|
|-0-0--0-0--0-0--0-0----------0-0--0-0--0-0--0-0--------|

 Guitar 1
|-------------------------------------------|
|-------------------------------------------|
|---------------------10-/-5----------------|
|-0-0--0-0--0-0--0-0--x--/-x--0-0-x-000-0-0-|
|-0-0--0-0--0-0--0-0--8--/-3--0-0-x-000-0-0-|
|-0-0--0-0--0-0--0-0----------0-0-x-000-0-0-|

 Guitar 2 (0:39)
|-----------------------------------------------------------------------|
|-----------------------------------------------------------------------|
|-7-7-7-7-7-7-/-14-/-12-12-12-12-/-10-10-/-12-12-12-/-10-10-/-9-5-5-/-7-|
|-x-x-x-x-x-x---x----x--x--x--x----x--x--/-x—-x--x----x--x----x-x-x---x-|
|-5-5-5-5-5-5-/-12-/-10-10-10-10-/-8--8--/-10-10-10-/-8--8--/-7-3-3-/-5-|
|-----------------------------------------------------------------------|


Verse I

 Guitar 1
|-------------------------------|
|-------------------------------|
|-------------------------------| 4x
|-0-0-x-x-x-x-0-0-x-x-x-x-3h5p3-|
|-0-0-x-x-x-x-0-0-x-x-x-x-3h5p3-|
|-0-0-x-x-x-x-0-0-x-x-x-x-3h5p3-|

 Guitar 1 and 2
|-----------------------------|
|-----------------------------|
|-----------------------------| 3x
|-0-0-0-0-0-0-0—0-0-0-0-0-3h5-|
|-0-0-0-0-0-0-0-0-0-0-0-0-3h5-|
|-0-0-0-0-0-0-0-0-0-0-0-0-3h5-|
  x x x x x x x x x x x x


 Guitar 1 and 2
|-----------------|
|-----------------|
|-----------------|
|-0-0-0-0-0-0-0—0-|
|-0-0-0-0-0-0-0-0-|
|-0-0-0-0-0-0-0-0-|
  x x x x x x x x


Chorus (1:18)

 Guitar 2
|--------------------------------------------------------|
|--------------------------------------------------------|
|-7--7--7--7-/-9--9--9--9-/-10-10-10-10-10-/-12-12-12-12-| 4x
|-x--x--x--x-/-x--x--x--x-/-x--x--x--x--x--/-x—-x--x--x--|
|-5--5--5--5-/-7--7--7--7-/-8--8--8--8--8--/-10-10-10-10-|
|--------------------------------------------------------|

 Guitar 1 (1:32)
|---------------------------------------------------------|
|---------------------------------------------------------|
|-14-14-14-14-/-12-12-12-12-/-10-10-10-10-10-/-9--9--9—-9-|
|-x--x--x--x--/-x--x--x--x--/-x--x--x--x--x--/-x—-x--x--x-|
|-12-12-12-12-/-10-10-10-10-/-8--8--8--8--8--/-7--7--7--7-|
|---------------------------------------------------------|

|-------------------------------------------------------|
|-------------------------------------------------------|
|-7—-7--7—-7--/-9—-9—-9--9-/-5—-5--5--5--5-/-7--7--7—-7-|
|-x--x--x--x--/-x--x--x--x-/-x--x--x--x--x-/-x—-x--x--x-|
|-5—-5--5--5--/-7—-7—-7--7-/-3--3--3--3--3-/-5--5--5--5-|
|-------------------------------------------------------|

|-------------------------------------------------------|
|-------------------------------------------------------|
|---------------------10-/-5----------------------5-/-7-|
|-0-0--0-0--0-0--0-0--x--/-x--0-0--0-0--0-0--0-0--------|
|-0-0--0-0--0-0--0-0--8--/-3--0-0--0-0--0-0--0-0--3-/-5-|
|-0-0--0-0--0-0--0-0----------0-0--0-0--0-0--0-0--------|

|-------------------------------------------|
|-------------------------------------------|
|---------------------10-/-5----------------|
|-0-0--0-0--0-0--0-0--x--/-x--0-0--0-0--0-0-|
|-0-0--0-0--0-0--0-0--8--/-3--0-0--0-0--0-0-|
|-0-0--0-0--0-0--0-0----------0-0--0-0--0-0-|


Verse II

 Guitar 1
|-------------------------------|
|-------------------------------|
|-------------------------------| 4x
|-0-0-x-x-x-x-0-0-x-x-x-x-3h5p3-|
|-0-0-x-x-x-x-0-0-x-x-x-x-3h5p3-|
|-0-0-x-x-x-x-0-0-x-x-x-x-3h5p3-|

 Guitar 1 and 2
|-----------------------------|
|-----------------------------|
|-----------------------------| 3x
|-0-0-0-0-0-0-0—0-0-0-0-0-3h5-|
|-0-0-0-0-0-0-0-0-0-0-0-0-3h5-|
|-0-0-0-0-0-0-0-0-0-0-0-0-3h5-|
  x x x x x x x x x x x x


 Guitar 1 and 2
|---|
|---|
|---|
|-0-|
|-0-|
|-0-|


Chorus (2:23)

 Guitar 2
|---------------------------------------------------------|
|---------------------------------------------------------|
|-7--7--7--7-/-9--9--9--9-/-10-10-10-10-10-/-12-12-12-12--| 4x
|-x--x--x--x-/-x--x--x--x-/-x--x--x--x--x--/-x—-x--x--x---|
|-5--5--5--5-/-7--7--7--7-/-8--8--8--8--8--/-10-10-10-10--|
|---------------------------------------------------------|


Interlude (2:49)

 Guitar 1
|-------------------------------------------------------------------|
|-------------------------------------------------------------------|
|-------------------------------------------------------------------|
|-0~~~~~~~~3bp0~~~~3bp0~~~~3bp0~~~~3bp0~~~~3bp0~~~~3bp0~~~~3bp0~~~~-|
|-0~~~~~~~~3bp0~~~~3bp0~~~~3bp0~~~~3bp0~~~~3bp0~~~~3bp0~~~~3bp0~~~~-|
|-0~~~~~~~~3bp0~~~~3bp0~~~~3bp0~~~~3bp0~~~~3bp0~~~~3bp0~~~~3bp0~~~~-|


Chorus (3:15)

 Guitar 2
|---------------------------------------------------------|
|---------------------------------------------------------|
|-7--7--7--7-/-9--9--9--9-/-10-10-10-10-10-/-12-12-12-12--| 8x
|-x--x--x--x-/-x--x--x--x-/-x--x--x--x--x--/-x—-x--x--x---|
|-5--5--5--5-/-7--7--7--7-/-8--8--8--8--8--/-10-10-10-10--|
|---------------------------------------------------------|

 Guitar 1 (3:22)
|---------------------------------------------------------|
|---------------------------------------------------------|
|---------------------------------------------------------| 2x
|-0-0-0-/-2-2-2-2-/-3-3-3-3-/-5-5-5-----------------------|
|-0-0-0-/-2-2-2-2-/-3-3-3-3-/-5-5-5-----------------------|
|-0-0-0-/-2-2-2-2-/-3-3-3-3-/-5-5-5-----------------------|


Bridge (4:16)

 Guitar 1 (Tremelo Picking)
|----------------|
|----------------|
|----------------| 2x
|----------------|
|-5-/-7-/-8-/-10-|
|----------------|

|----------------|
|----------------|
|----------------| 2x
|----------------|
|-5-/-7-/-8-/-10-|
|----------------|
  x   x   x   x
 
 Guitar 2 (4:42)
|---------------------------------------------------------|
|---------------------------------------------------------|
|-7--7--7--7-/-9--9--9--9-/-10-10-10-10-10-/-12-12-12-12--| 2x
|-x--x--x--x-/-x--x--x--x-/-x--x--x--x--x--/-x—-x--x--x---|
|-5--5--5--5-/-7--7--7--7-/-8--8--8--8--8--/-10-10-10-10--|
|---------------------------------------------------------|

 Guitar 1 (4:42)
|-----------------------------|
|-----------------------------|
|-7--7--10-/-9-9-7-5-2--5~~~~-| 2x
|-x--x--x----x-x-x-x-x--x-----|
|-5--5--8--/-7-7-5-3-0--3~~~~-|
|-----------------------------|


Outro

 Guitar 2 (4:55) (very faint)
|---------------------------------------------------------|
|---------------------------------------------------------|
|-7--7--7--7-/-9--9--9--9-/-10-10-10-10-10-/-12-12-12-12--|
|-x--x--x--x-/-x--x--x--x-/-x--x--x--x--x--/-x—-x--x--x---|
|-5--5--5--5-/-7--7--7--7-/-8--8--8--8--8--/-10-10-10-10--|
|---------------------------------------------------------|

|---------------------------------------------------------|
|---------------------------------------------------------|
|-7--7--7--7-/-9--9--9--9-/-10-10-10-10-10-/-9--9--9--9---|
|-x--x--x--x-/-x--x--x--x-/-x--x--x--x--x--/-x—-x--x--x---|
|-5--5--5--5-/-7--7--7--7-/-8--8--8--8--8--/-7--7--7--7---|
|---------------------------------------------------------|

|--------------------------------------------------------|
|--------------------------------------------------------|
|-7--7--7--7-/-9--9--9--9-/-10-10-10-10-10-/-12-12-12-12-|
|-x--x--x--x---x--x--x--x---x--x--x--x--x—---x--x--x--x--|
|-5--5--5--5-/-7--7--7--7-/-8--8--8--8--8--/-10-10-10-10-|
|--------------------------------------------------------|

|-----------------------------------------------|
|-----------------------------------------------|
|-7--7--7--7-/-10-/-9--9--9-/-5--5--5-/-7--7--7-|
|-x--x--x--x---x----x--x--x---x--x--x---x--x--x-|
|-5--5--5--5-/-8--/-7--7--7-/-3--3--3-/-5--5--5-|
|-----------------------------------------------|

|--------------------------------------------------------|
|--------------------------------------------------------|
|-7--7--7--7-/-9--9--9--9-/-10-10-10-10-10-/-12-12-12-12-|
|-x--x--x--x-/-x--x--x--x-/-x--x--x--x--x--/-x—-x--x--x--|
|-5--5--5--5-/-7--7--7--7-/-8--8--8--8--8--/-10-10-10-10-|
|--------------------------------------------------------|

|-----------------------------------------------------------|
|-----------------------------------------------------------|
|-7--7--7--7-/-9--9--9--9-/-5--5--5--5--5--/-7--7--7--7~~~7-|
|-x--x--x--x-/-x--x--x--x-/-x--x--x--x--x--/-x—-x--x--x~~~x-|
|-5--5--5--5-/-7--7--7--7-/-3--3--3--3--3--/-5--5--5--5~~~5-|
|-----------------------------------------------------------|



||-------------------------------------------------------------------------||
||-------------------------------------------------------------------------||
            
Submit corrections


        Rapture lessons Hard to play? Try these video lessons and learn fast Rapture lessons
        
↑ Back to top | Tablatures and chords for acoustic guitar and electric guitar, ukulele, drums are parodies/interpretations of the original songs. You may use it for private study, scholarship, research or language learning purposes only