» » »

Hurt - Falls Apart Tabs

Artists:  A B C D E F G H I J K L M N O P Q R S T U V W X Y Z # 

Falls Apart Tabs

(ver. 3) Click to play this song!
Hurt
 Rating:
4.6/5 (9 votes)

 Falls Apart lessons Tabs too difficult? Try these video lessons and learn fast
 
                Intro/Verse
e|-----------------------------------------|
b|------1------1---------------------------|
g|------2------0---------------------------| x6
d|------2------2---3-3--3-33-3-------------|
a|---0------3------3-3h55-55-3h5-----------|
d|-----------------3-3--3-33-3-------------|

Chorus    
NOTE: The srtumming patterns change in each chorus. listen for the differences.
"Cause everything just falls apart"
e|-----------------------------------------|
b|-----------------------------------------|
g|--5~----7~----9~--9~--9-9--9-9-----------|
d|--3~----5~----7~--7~--7-7--7-7-----------| x2
a|--3~----5~----7~--7~--7-7--7-7-----------|
d|--3~----5~----7~--7~--7-7--7-7-----------|

  "I cracked my head and broke my..."
e|-----------------------------------------|
b|-----------------------------------------|
g|--5~----7~----5~----7~----5~----7~----9~-|
d|--3~----5~----3~----5~----3~----5~----7~-| x1
a|--3~----5~----3~----5~----3~----5~----7~-|
d|--3~----5~----3~----5~----3~----5~----7~-|

verse 2
e|-----------------------------------------|
b|------1------1---------------------------|
g|------2------0---------------------------| x4
d|------2------2---3-3--3-33-3-------------|
a|---0------3------3-3h55-55-3h5-----------|
d|-----------------3-3--3-33-3-------------|

Bridge(picking riff)
"And the hell of it is what we are"
e|---------------------10---10---8---8-----|
b|-10---10---12---12-----------------------|
g|----9----9----9----9----9----9---9---9---| x4
d|-----------------------------------------|
a|-----------------------------------------|
d|-----------------------------------------|
            
Submit corrections


        Falls Apart lessons Hard to play? Try these video lessons and learn fast Falls Apart lessons
        
↑ Back to top | Tablatures and chords for acoustic guitar and electric guitar, ukulele, drums are parodies/interpretations of the original songs. You may use it for private study, scholarship, research or language learning purposes only