» » »

Hurt - Cold Inside Tabs

Artists:  A B C D E F G H I J K L M N O P Q R S T U V W X Y Z # 

Cold Inside Tabs

(ver. 3) Click to play this song!
Hurt
 Rating:
3.4/5 (5 votes)

 Cold Inside lessons Tabs too difficult? Try these video lessons and learn fast
 
                Tuning: Drop c

hey i hope this tab will prove of great service to
you to learn this great song. im pretty sure this tab is 100% right so enjoy xD

Verses

------0------0-0----------0-------0-0-----------------------------------|
------------3-3------------------3-3------------------------------------|
---------2--------------------2-----------------------------------------|
----0-------------------0-----------------------------------------------|
-----------------------1------------------------------------------------|
--0---------------------------------------------------------------------|

and for when you hear the first strumming
part that comes up on the intro its just
the same notes but as chords. also you
will notice that he will play this part
once in the verse then at the second time
it will be the build up to the chorus.

-------0-0-0---0---0-0-0-00---------------------------------------------|
-------3-3-3---3---3-3-3-33---------------------------------------------|
-------2-2-2---2---2-2-2-22---------------------------------------------|
---0---0-0-0---0---0-0-0-00---------------------------------------------|
---0---0-0-0---1---1-1-1-11---------------------------------------------|
---0---0-0-0------------------------------------------------------------|

Chorus

------------------------------------------------------------------------|
---3---3-3----3-3-3-333-------------------------------------------------|
---2---2-2----2-2-2-222-----6---6-6----6-6-6-666------------------------|
---0---0-0----0-0-0-000-----4---4-4----4-4-4-444------------------------|
---0---0-0----0-0-0-000-----4---4-4----4-4-4-444------------------------|
---0---0-0----0-0-0-000-----4---4-4----4-4-4-444------------------------|

and again thanks for reading my tab :)

p.s sorry for the amount of text
Eddy .J
            
Submit corrections


        Cold Inside lessons Hard to play? Try these video lessons and learn fast Cold Inside lessons
        
↑ Back to top | Tablatures and chords for acoustic guitar and electric guitar, ukulele, drums are parodies/interpretations of the original songs. You may use it for private study, scholarship, research or language learning purposes only