» » »

Hurt - Cold Inside Tabs

Artists:  A B C D E F G H I J K L M N O P Q R S T U V W X Y Z # 

Cold Inside Tabs

(ver. 1) Click to play this song!
Hurt
 Rating:
4/5 (9 votes)

 Cold Inside lessons Tabs too difficult? Try these video lessons and learn fast
 
                -------------------------------------------------------------------------------
                                   COLD INSIDE- Hurt
-------------------------------------------------------------------------------
Tuning:Drop D
 
  I had to redo this song because the other one was wrong, wrong, wrong.
 Seriously- it's obvious if you listen to the song. This one should be right.
 Be sure to look at the order of the song at the bottom - and as always - 
listen to the song for the exact timing/strum pattern.
   
*VERSE*
e|----0-------0--------------------0------------0------0--------------------|
B|---------3---------3---------5------------5-------------------------------|
G|--2---2---------2--------3-----------3-----------3------------------------|
D|--------------------------------------------------------------------------|x3
A|--------------------------------------------------------------------------|
D|0--(Let ring throughout)--------------------------------------------------|
   
  *...then this*
e|-----0--------0----------------0--------0---------0--------0--------0------|
B|-----------3--------3------5---------5--------5---------5--------5---------|
G|--2-----2--------2------3---------3--------3---------3--------3--------3---|
D|---------------------------------------------------------------------------|
A|---------------------------------------------------------------------------|
D|0--------------------------------------------------------------------------|
   
*PRE-CHORUS*   (At the "Yeah, yeah" part)
e|--0--0---xx---0--0--0--00---0--0--xx--0--0--0--00--0--0--0--0--0--0-0----|
B|--3--3---xx---5--5--5--55---3--3--xx--5--5--5--55--3--3--3--3--3--3-3----|
G|--2--2---xx---3--3--3--33---2--2--xx--3--3--3--33--3--3--3--3--3--3-3----|
D|--0--0---xx---0--0--0--00---0--0--xx--0--0--0--00--0--0--0--0--0--0-0----|
A|--0--0---xx---0--0--0--00---0--0--xx--0--0--0--00--0--0--0--0--0--0-0----|
D|--0--0---xx---0--0--0--00---0--0--xx--0--0--0--00--0--0--0--0--0--0-0----|
   
*CHORUS*                      
e|-0-0--0--0--0--0-0-0--0-0--0--0--0--0-0-0------|       (-5-)
B|-3-3--3--3--3--3-3-3--0-0--0--0--0--0-0-0------|       (-3-)
G|-2-2--2--2--2--2-2-2--3-3--3--3--3--3-3-3------|       (-2-) 
D|-0-0--0--0--0--0-0-0--4-4--4--4--4--4-4-4------|x4     (-0-)  
A|-0-0--0--0--0--0-0-0--4-4--4--4--4--4-4-4------|       (-0-)
D|-0-0--0--0--0--0-0-0--4-4--4--4--4--4-4-4------|       (-0-)
                                     (Sometimes Paul uses this chord instead)
 *BRIDGE*- slightly palm mute all
e|---0--x-x-0--x-x-0--x-0--x-x-0--x-x-0--x----------------------------|
B|---3--x-x-3--x-x-3--x-5--x-x-5--x-x-5--x----------------------------|
G|---2--x-x-2--x-x-2--x-3--x-x-3--x-x-3--x----------------------------|
D|---0--x-x-0--x-x-0--x-0--x-x-0--x-x-0--x----------------------------|x4
A|---0--x-x-0--x-x-0--x-0--x-x-0--x-x-0--x----------------------------|
D|---0--x-x-0--x-x-0--x-0--x-x-0--x-x-0--x----------------------------|

*OUTRO*
e|-----0-----0-----------------0-----------------------0----------------|
B|---------3------3---------5--------5/7/5---3---------3----------------|
G|---2---2------2--------3--------3--------------------2----------------|
D|-----------------------------------------------------0----------------|
A|-----------------------------------------------------0----------------|
D|-0---------------------------------------------------0----------------|

*ORDER OF SONG*
Verse x2
Pre-Chorus 
Verse
Chorus
Verse 
Chorus
Bridge
Chorus
Verse + Outro (Instead of "then this" part)


| /  slide up
| \  slide down
| h  hammer-on
| p  pull-off
| ~  vibrato
| +  harmonic
| x  Mute note
===============================================================================
            
Submit corrections


        Cold Inside lessons Hard to play? Try these video lessons and learn fast Cold Inside lessons
        
↑ Back to top | Tablatures and chords for acoustic guitar and electric guitar, ukulele, drums are parodies/interpretations of the original songs. You may use it for private study, scholarship, research or language learning purposes only