» » »

Hot Chocolate - Everyones A Winner Tabs

Artists:  A B C D E F G H I J K L M N O P Q R S T U V W X Y Z # 

Everyones A Winner Tabs

(ver. 1) Click to play this song!
Hot Chocolate
 Rating:
3.7/5 (6 votes)

 Everyones A Winner lessons Tabs too difficult? Try these video lessons and learn fast
 
                Since there are no correct tabs out there for such a well known riff, I thought I'd post my own.
I worked the tabs out by ear from a slowed down version of the song, so the odd note may 
incorrect but I think the vast majority are correct.
To get the correct timing try listening to the song, or even better get a slowed down version.
All string bends in this song are small bends, not quite half step.
I've set \ as sliding down the neck of the guitar, so higher in note, and / as the reverse.
Standard Tuning

E---------------------------------------------------------|
B---------------------------------------------------------|
G---------------------------------------------------------|
D---------------------------------------------------------|
A------------------------------11---------11--11----------|
E-11-10-(x5)-8-6---------11-13------11-13---------11--13~-|


E---------------------------------------------------------|
B---------------------------------------------------------|
G---------------------------------------------------------|
D---------------------------------------------------------|
A--------------------------------------11---13---11b------|
E-11-10-(x5)-8-6---------6--8--11-11------------------13~-|


Never could believe the things you do to me,
Never could believe the way you are.
Every day I bless the day that you got through to me,
'Cause baby, I believe that you're a star.

Everyone's a winner, baby, that's the truth (yes, the truth)
Making love to you is such a thrill.
Everyone's a winner, baby, that's no lie (yes, no lie)
You never fail to satisfy (satisfy)

E---------------------------------------------------------|
B---------------------------------------------------------|
G---------------------------------------------------------|
D---------------------------------------------------------|
A------------------------------11---------11--11----------|
E-11-10-(x5)-8-6---------11-13------11-13---------11--13~-|


E--------------------------------------------------------------|
B--------------------------------------------------------------|
G--------------------------------------------------------------|
D--------------------------------------------------------------|
A----------------------------------------------11b-------------|
E-11-10-(x5)-8-6---------6--8--11---11-13-13-13-----13-11--13~-|


Never could explain just what was happening to me,
Just one touch of you and I'm a flame.
Baby, it's amazing just how wonderful it is
That the things we like to do are just the same.

Everyone's a winner, baby, that's the truth (yes, the truth)
Making love to you is such a thrill.
Everyone's a winner, baby, that's no lie (yes, no lie)
You never fail to satisfy (satisfy)

E---------------------------------------------------------|
B---------------------------------------------------------|
G---------------------------------------------------------|
D---------------------------------------------------------|
A------------------------------11---------11--11----------|
E-11-10-(x5)-8-6---------11-13------11-13---------11--13~-|


E--------------------------------------------------------------|
B--------------------------------------------------------------|
G--------------------------------------------------------------|
D--------------------------------------------------------------|
A----------------------------------------------11b-------------|
E-11-10-(x5)-8-6\--------6--8--11-11-11-13-13-13----13-11--13~-|
(slightly different to last riff)

Instrumental

E--------------------------------------------------------------|
B--------------------------------------------------------------|
G--------------------------------------------------------------|
D--------------------------------------------------------------|
A------------------------------11------13------11b-------------|
E-11-10-(x5)-8-6/--------11-13------11----13--------13-11--13~-|


E--------------------------------------------------------------|
B--------------------------------------------------------------|
G--------------------------------------------------------------|
D--------------------------------------------------------------|
A----------------------------------------13---11b--------------|
E-11-10-(x5)-8-6\--------6--8-----11-11-------------13-11--13~-|

(faintly)
E----------------------------------------|
B----------------------------------------|
G----------------------------------------|
D----------------------------------------|
A----------------------------------------|
E~~~~~~13~~~~13-13-13~~~~13-13~~~~13-13/-|

E--------------------------------------------------------------|
B--------------------------------------------------------------|
G--------------------------------------------------------------|
D-13-12-(x5)--------------------13-----15-----13---------------|
A------------15-13/------13-15-------15--15------15------------|
E----------------------------------------------------16b-13~~~-|

E--------------------------------------------------------------|
B--------------------------------------------------------------|
G--------------------------------------15----13b---------------|
D-13-12-(x5)-13-15/------------13----------------15-13--15~~~~-|
A------------------------13-15---------------------------------|
E--------------------------------------------------------------|


Everyone's a winner, baby, that's the truth (yes, the truth)
Making love to you is such a thrill.
Everyone's a winner, baby, that's no lie (yes, no lie)
You never fail to satisfy (satisfy)


E--------------------------------------------------------------|
B--------------------------------------------------------------|
G--------------------------------------------------------------|
D--------------------------------------------------------------|
A------------------------------13-----11-----13-------11b------|
E-11-10-(x5)-8-6---------11-13-----------13-----13---------13~-|

(Begin fade)

E--------------------------------------------------------------|
B--------------------------------------------------------------|
G---------------------------------------------13---------------|
D-----------------------------13-----15------------15--13--15~-|
A----------------------13--15-----------15-15------------------|
E-11-10-(x5)-11-13\--------------------------------------------|


E---------------------|
B---------------------|
G---------------------|
D-13-12-(x5)----------|
A-------------15--13/-|
E---------------------|

Enjoy.
            
Submit corrections


        Everyones A Winner lessons Hard to play? Try these video lessons and learn fast Everyones A Winner lessons
        
↑ Back to top | Tablatures and chords for acoustic guitar and electric guitar, ukulele, drums are parodies/interpretations of the original songs. You may use it for private study, scholarship, research or language learning purposes only