» » »

Hoobastank - Remember Me? Tabs

Artists:  A B C D E F G H I J K L M N O P Q R S T U V W X Y Z # 

Remember Me? Tabs

(ver. 1) Click to play this song!
Hoobastank
 Rating:
4/5 (4 votes)

 Remember Me? lessons Tabs too difficult? Try these video lessons and learn fast
 
                ---------------------------------
| ~ - let ring   ( ) - harmonic |
| h - hammer on  p - pull off   |
---------------------------------

  Verse (phaser)
e|--------------------------------------------------------
B|--3-3--3-3--3-3--3-3--3-3-3--1-1--1-1--1-1--1-1--1-1-1--
G|*-------------------------------------------------------
D|*-------------------------------------------------------
A|--------------------------------------------------------
D|--------------------------------------------------------

                                                          (dist)
e|--------------------------------------|----------------|-----
B|-6-6--6-6--6-6--6-6--6-6-6--5-5--5-5--|-5--3-3--3-3-3--|-----
G|--------------------------------------|---------------*|-5~--
D|--------------------------------------|---------------*|-5~--
A|--------------------------------------|----------------|-3~--
D|--------------------------------------|----------------|-----


  Pre-Chorus
e|-----------------------------------------------------------------------------
B|-----------------------------------------------------------------------------
G|-----------------------------------------------------------------------------
D|-----------------------------------------------------------------------------
A|-0-12-10-0-10-12-0-3-5-0--10h12p10-5----0-12-10-0-10-12-0-3-5-0--10h12p10-3--
D|-0-12-10-0-10-12-0-3-5-0--10h12p10-5----0-12-10-0-10-12-0-3-5-0--10h12p10-3--
                                                                              2x

  Chorus
e|----------------------------------------------------------------------
B|----------------------------------------------------------------------
G|----------------------------------------------------------------------
D|-0-0-----------0-0-----------0----3-3-(12-12-12-12)-3-3-(12-12-12)-3--
A|-0-0-(5-5-5-5)-0-0-(5-5-5-5)-0----3-3---------------3-3------------3--
D|-0-0-----------0-0-----------0----3-3---------------3-3------------3--


e|--------------------------------------
B|--------------------------------------
G|-3---3--3-3-5---5--5-5----5----5---5--
D|-3---3--3-3-5---5--5-5-0--5-0--5-0-5--
A|-1---1--1-1-3---3--3-3-0--3-0--3-0-3--
D|-----------------------0----0----0----


  Post-Chorus
e|----------------
B|----------------
G|----5----5---5--
D|----5----5---5--
A|-0--3-0--3-0-3--
D|-0----0----0----
                 3x

  Bridge (phaser)
e|--------------------------------------|------------------
B|-6-6--6-6--6-6--6-6--6-6-6--5-5--5-5--|-5-5--5-5--5-5-5--
G|--------------------------------------|------------------
D|--------------------------------------|------------------ to bar on
A|--------------------------------------|------------------ fourth time
D|--------------------------------------|------------------
                                                          4X
        (guitar.1)
e|-----|--------------------------------------------
B|-----|--------------------------------------------
G|-5~--|----------5---------------5------------5----
D|-5~--|----------5---------------5------------5----
A|-3~--|-0--------3------0--------3------0-----3----
D|-----|-0---------------0---------------0----------
                                                   4x
        (guitar.2)
e|-----|--------------------------------------------
B|-----|--------------------------------------------
G|-5~--|-10-10-10-9-9-9--10-10-10-9-9-9--10-10-9-9--
D|-5~--|-x--x--x--x-x-x---x--x--x-x-x-x---x--x-x-x--
A|-3~--|-8--8--8--7-7-7---8--8--8-7-7-7---8--8-7-7--
D|-----|--------------------------------------------
                                                   4x

  End (guitar.1)
e|--------------------------------------------|----------------------------------------
B|--------------------------------------------|----------------------------------------
G|----------5---------------5------------5----|----------5---------------5-------------
D|----------5---------------5------------5----|----------5---------------5-------------
A|-0--------3-------0-------3-------0----3----|-0--------3-------0-------3-------0--0--
D|-0----------------0---------------0---------|-0----------------0---------------0--0--
                                             2x
  End (guitar.2 - 2nd bar)
e|--------------------------------------------|----------------------------------------
B|--------------------------------------------|----------------------------------------
G|-10-10-10-9-9-9--10-10-10-9-9-9--10-10-9-9--|-10-10-10-9-9-9--10-10-10-9-9-9--10-10--
D|-x--x--x--x-x-x---x--x--x-x-x-x---x--x-x-x--|-x--x--x--x-x-x---x--x--x-x-x-x---x--x--
A|-8--8--8--7-7-7---8--8--8-7-7-7---8--8-7-7--|-8--8--8--7-7-7---8--8--8-7-7-7---8--8--
D|--------------------------------------------|----------------------------------------


Verse           / Chorus - 2x
Pre-Chorus     /  Post-Chorus
Chorus - 2x   /   Bridge
Verse        /    Chorus - 2x
Pre-Chorus  /     End
            
Submit corrections


        Remember Me? lessons Hard to play? Try these video lessons and learn fast Remember Me? lessons
        
↑ Back to top | Tablatures and chords for acoustic guitar and electric guitar, ukulele, drums are parodies/interpretations of the original songs. You may use it for private study, scholarship, research or language learning purposes only