Home » H » Hoobastank »

Hoobastank - Right Before Your Eyes Tabs

Artists:  A B C D E F G H I J K L M N O P Q R S T U V W X Y Z # 

Right Before Your Eyes Tabs

(ver. 1) Click to play this song!
Hoobastank
Hoobastank - Right Before Your Eyes

Standard Tuning: E A D G B e

Verse: (palm mute)
e|--------------------------------|
B|--------------------------------|
G|--66666666666666x9999999999999--|
D|--66666666666666x9999999999999--|
A|--------------------------------|
E|--------------------------------|

Pre-chorus:
e|--------------------------------|
B|--------------------------------|
G|----------4~--------------6~----|
D|--6~--------------4~------------|
A|--------------------------------|
E|--------------------------------|

Chorus:
e|-------------------------------------------------------|
B|-------------------------------------------------------|
G|------------------4-------------------------------6----|
D|--6---------------4---------------4---------------6----|
A|--6---------------2---------------4---------------4----|
E|--4-------------------------------2--------------------|

Bridge/Outro:
e|-------------------------------------------------------|
B|------9-9-9-9-----7-7-7-7------------------------------|
G|------------------------------10-10-10-10-----8-8-8-8--|
D|--6-6---------6-6---------6-6-------------6-6----------|
A|-------------------------------------------------------|
E|-------------------------------------------------------|
            
Submit corrections

↑ Back to top | Tablatures and chords for acoustic guitar and electric guitar, ukulele, drums are parodies/interpretations of the original songs. You may use it for private study, scholarship, research or language learning purposes only