Home » H » Hoobastank »

Hoobastank - Born To Lead Tabs

Artists:  A B C D E F G H I J K L M N O P Q R S T U V W X Y Z # 

Born To Lead Tabs

(ver. 2) Click to play this song!
Hoobastank

-------------------------------------------------------------------------------
                             Born to lead - Hoobastank
-------------------------------------------------------------------------------

Tuning:Dropped d
Chorus
E|---------------------------------------------------------------------------|
B|---------------------------------------------------------------------------|
G|-------5---------1---------------------------------------------------------|
D|--0----5----5----1---------------------------------------------------------|
A|--0----3----5----1---------------------------------------------------------|
D|--0---------5----1---------------------------------------------------------|


part 2 chourus

E|---------------------------------------------------------------------------|
B|---------------------------------------------------------------------------|
G|-------------55555555----------------111111111-----------------------------|
D|-00000000----55555555----55555555----111111111-----------------------------|
A|-00000000----33333333----55555555----111111111-----------------------------|
D|-00000000----------------55555555----111111111-----------------------------|
            
Submit corrections

↑ Back to top | Tablatures and chords for acoustic guitar and electric guitar, ukulele, drums are parodies/interpretations of the original songs. You may use it for private study, scholarship, research or language learning purposes only