» » »

Homestuck - Verdancy Bass

Artists:  A B C D E F G H I J K L M N O P Q R S T U V W X Y Z # 

Verdancy Bass

(ver. 1) Click to play this song!
Homestuck
 Rating:
4/5 (4 votes)

 Verdancy lessons Tabs too difficult? Try these video lessons and learn fast
 
                G|---8----8---8----------8----8---8----------8--8--8-------------8--8--8----------------| x2
D|-10-10-9-9-8-8-------10-10-9-9-8-8-------10--9--8------------10--9--8-----------------|
A|---------------8888-----------------888------------88881010-----------------8810810---|
E|--------------------------------------------------------------------------------------|

G|-----6-----6-8-----6-----6-8-----10---10-10h11h13-11-10--11p10h11p10-8----------------|
D|-8-8----6-6----8-8----6-6----8-8-----8--8------------------------------8--------------|
A|--------------------------------------------------------------------------------------|
E|--------------------------------------------------------------------------------------|

G|---------10-11-13---------13-15-16---------10-11-13---------13-15-18------------------|
D|-10-11-13---------10-11-13---------10-11-13---------10-11-13--------------------------|
A|--------------------------------------------------------------------------------------|
E|--------------------------------------------------------------------------------------|

G|---------10-11-13---------13-15-16---------10-11-13---------13-15-18----18------------|
D|-10-11-13---------10-11-13---------10-11-13---------10-11-13--------------------------|
A|--------------------------------------------------------------------------------------|
E|--------------------------------------------------------------------------------------|
            
Submit corrections


        Verdancy lessons Hard to play? Try these video lessons and learn fast Verdancy lessons
        
↑ Back to top | Tablatures and chords for acoustic guitar and electric guitar, ukulele, drums are parodies/interpretations of the original songs. You may use it for private study, scholarship, research or language learning purposes only