» » »

Homestuck - Megalovania Tabs

Artists:  A B C D E F G H I J K L M N O P Q R S T U V W X Y Z # 

Megalovania Tabs

(ver. 1) Click to play this song!
Homestuck
 Rating:
3.6/5 (26 votes)

 Megalovania  lessons Tabs too difficult? Try these video lessons and learn fast
 
                == Intro ==
0:00 - guitar
e|------|------|--------------|
B|------|------|--------------|
G|------|------|--------------|
D|-3----|-4----|-9>-----------|
A|-3----|-4----|-9>-(dive)----|
E|-1----|-2----|-7>-----------|


== Main Riff ==
0:14 - synth
e|------------------------|
B|-----------------[x4]---|
G|------------------------|
D|-----7------------------|
A|-------7---6-5-33---3-5-|
E|-5-5--------------5-----|

e|------------------------|------------------------|
B|------------------------|------------------------|
G|------------------------|-----2------------------|
D|-----7------------------|-------2----------------|
A|-------7---6-5-33---3-5-|-----------6-5-33---3-5-|
E|-5-5--------------5-----|-3-3--------------5-----|

e|------------------------|------------------------|
B|------------------------|------------------------|
G|-----2------------------|-----2------------------|
D|-------2----------------|-------2----------------|
A|-----------6-5-33---3-5-|-----------6-5-33---3-5-|
E|-2-2--------------5-----|-1-1--------------5-----|


== Verse ==
0:30 - guitar
e|-------17--------------------------|-------17--------------15----------|
B|----------17--15b16-15-13----13-15-|----------17--15b16-15----17-16-15-|
G|-14-14--------------------14-------|-12-12-----------------------------|
D|-----------------------------------|-----------------------------------|
A|-----------------------------------|-----------------------------------|
E|-----------------------------------|-----------------------------------|

e|-------17----------------------------------------------------------------|
B|----------17--15b16-15-13----13-15--16-15-13-15--13----13-13-------------|
G|--------------------------14------------------------14--------16--14--12-|
D|-16-16-------------------------------------------------------------------|
A|-------------------------------------------------------------------------|
E|-------------------------------------------------------------------------|

0:38 - synth
e|---------------------|-------------------------------------|
B|-13-1313-13-13-------|-13-1313--15-b16-15-13----13-15------|
G|---------------14-14-|-----------------------14------------|
D|---------------------|-------------------------------------|
A|---------------------|-------------------------------------|
E|---------------------|-------------------------------------|

e|------------------15-----17-17-17----17-15-|
B|-13-1313-15-16-17----17-----------17-------|
G|-------------------------------------------|
D|-------------------------------------------|
A|-------------------------------------------|
E|-------------------------------------------|

e|---------------------|-------------------------------------|
B|-13-1313-13-13-------|-13-1313--15-b16-15-13----13-15------|
G|---------------14-14-|-----------------------14------------|
D|---------------------|-------------------------------------|
A|---------------------|-------------------------------------|
E|---------------------|-------------------------------------|

e|-171717----------------------151515------------------------------------15-|
B|--------171717-151515---------------151515--------------------------13----|
G|----------------------171717---------------171717-161616------12-14-------|
D|-----------------------------------------------------------15-------------|
A|--------------------------------------------------------------------------|
E|--------------------------------------------------------------------------|


== Solo 1 ==
0:56 - guitar
e|--------------------------------|
B|--------------------------------|
G|-5---5-7-7b8-7-5----8p7p5---5-7-|
D|---7-------------7-------h7-----|
A|--------------------------------|
E|--------------------------------|

e|------------------------------------|
B|------------------------------------|
G|----------12------------------------|
D|-x--13-14------14-13-12-------------|
A|------------------------15-12-14-15-|
E|------------------------------------|

1:00 - guitar
e|--------------------|------------------------------------------------|
B|--------------------|------------------------------------------------|
G|----------12~---14~-|----------------------171717-16161616-14141414--|
D|-12~--14~-----------|-141414-151515-171717---------------------------|
A|--------------------|------------------------------------------------|
E|--------------------|------------------------------------------------|

e|------------------15b17br15------19b21-21--\-\-\----------------|
B|-17b19br17-15---------------17----------------------------------|
G|------------------------------------------------14----14>-dive--|
D|----------------------------------------------------------------|
A|----------------------------------------------------------------|
E|----------------------------------------------------------------|

or

1:00 - synth
e|----------------------------------------------------------------------------|
B|----------------------------------------------------------------------------|
G|-------12-14-14------------------------------------171717-16161616-14141414-|
D|-12-14----------14-12----12-----------------141414--------------------------|
A|----------------------15------151515-171717---------------------------------|
E|----------------------------------------------------------------------------|

e|-------------------------------------------------------------------------|
B|-------------------------------------1717171717171717\\\---10101010\\\\--|
G|--16161616-17171717-1919191-16161616-------------------------------------|
D|-------------------------------------------------------------------------|
A|-------------------------------------------------------------------------|
E|-------------------------------------------------------------------------|


1:17 - guitar
e|-------17--------------------------|
B|----------17--15b16-15-13----13-15-|
G|-14-14--------------------14-------|
D|-----------------------------------|
A|-----------------------------------|
E|-----------------------------------|


== Outro 1 ==
1:25
e|-------17-----------20-19-17-15-|-------17--------------------------|
B|----------17-15b16--------------|----------17--15b16-15-13----13-15-|
G|-14-14--------------------------|-12-12--------------------14-------|
D|--------------------------------|-----------------------------------|
A|--------------------------------|-----------------------------------|
E|--------------------------------|-----------------------------------|

e|-------17-----------20-19-17-15-|-------17--------------------------|
B|----------17-15b16--------------|----------17--15b16-15-13----13-15-|
G|-14-14--------------------------|-12-12--------------------14-------|
D|--------------------------------|-----------------------------------|
A|--------------------------------|-----------------------------------|
E|--------------------------------|-----------------------------------|

e|-------17-15-15-17----20--19--17-15-|------~----------------------------|
B|-15-17-------------15---15--15------|-----------------------------------|
G|------------------------------------|-------17-16--14--17--17~~~~-------|
D|------------------------------------|---15------------------------------|
A|------------------------------------|-----------------------------------|
E|------------------------------------|-----------------------------------|


== Interlude ==
Main Riff


== Verse ==
1:56
e|-------17--------------------------|-------17--------------15----------|
B|----------17--15b16-15-13----13-15-|----------17--15b16-15----17-16-15-|
G|-14-14--------------------14-------|-12-12-----------------------------|
D|-----------------------------------|-----------------------------------|
A|-----------------------------------|-----------------------------------|
E|-----------------------------------|-----------------------------------|

e|-------17----------------------------------------------------------------|
B|----------17--15b16-15-13----13-15--16-15-13-15--13----13-13-------------|
G|--------------------------14------------------------14-------------------|
D|-16-16-------------------------------------------------------------------|
A|-------------------------------------------------------------------------|
E|-------------------------------------------------------------------------|


== Solo 2 == 
2:05
e|--------------------------|-------------------------------------|
B|----13-----------13-------|--------------16----15----13---------|
G|-------14--12-14----12-14-|-12-12-14-12-----12----12------------|
D|--------------------------|-------------------------------------|
A|-12-----------------------|-------------------------------------|
E|--------------------------|-------------------------------------|

e|--------------------15b17-------------------------------------------|
B|-----------17-15-17-------17-15-15b17-15-13---17-15-----------------|
G|-14--14-14------------------------------------------17--17~~~~16~~~-|
D|--------------------------------------------------------------------|
A|--------------------------------------------------------------------|
E|--------------------------------------------------------------------|

e|-151617-15-17-15-15-17-17-15-----------------------------------------|
B|-----------------------------17--13-12-15-13-12----------------------|
G|---------------------------------------------------------9--12-11-10-|
D|------------------------------------------------14-12-10-------------|
A|---------------------------------------------------------------------|
E|---------------------------------------------------------------------|

e|---------------------------------------------------------------|
B|----17----15------------15b16---15--13-12-13--/19b20-----------|
G|-14----14----17-16-17------------------------------------------|
D|---------------------------------------------------------------|
A|---------------------------------------------------------------|
E|---------------------------------------------------------------|

e|-151617-15-17-15-15-17-17-15--------------------------------22-|
B|-----------------------------17---20-20--22-22---22-20-19------|
G|---------------------------------------------------------------|
D|---------------------------------------------------------------|
A|---------------------------------------------------------------|
E|---------------------------------------------------------------|

e|-------------------------------------------17h19p17----------|
B|-17-15------17-15-------15b17-17-17-br15------------20-------|
G|-------17---------17-----------------------------------------|
D|-------------------------------------------------------------|
A|-------------------------------------------------------------|
E|-------------------------------------------------------------|


== Outro 2 ==
e|-------------------------------------------------------------|
B|-------------------5-5---5---5-----7--7----------------------|
G|--7b8-8-8-8br7p5---5-5---5---5-7---7--7----------------------|
D|----------------h7-----7---7---7---7--7----------------------|
A|-------------------------------------------------------------|
E|-------------------------------------------------------------|

e|--------------------------------------------------------------|
B|-----10--------10-12b13-------13-15b16---16br15-13----13-15b16|
G|-/12-------/12------------/14----------------------14---------|
D|--------------------------------------------------------------|
A|--------------------------------------------------------------|
E|--------------------------------------------------------------|

            
Submit corrections


        Megalovania  lessons Hard to play? Try these video lessons and learn fast Megalovania  lessons
        
↑ Back to top | Tablatures and chords for acoustic guitar and electric guitar, ukulele, drums are parodies/interpretations of the original songs. You may use it for private study, scholarship, research or language learning purposes only