» » »

Homestuck - Beatdown Tabs

Artists:  A B C D E F G H I J K L M N O P Q R S T U V W X Y Z # 

Beatdown Tabs

(ver. 2) Click to play this song!
Homestuck
 Rating:
3.3/5 (23 votes)

 Beatdown lessons Tabs too difficult? Try these video lessons and learn fast
 
                e|----|
B|-11-|
G|-10-|
D|-8--|
A|-8--|
E|----|


0:07 - Bass:
G|--------------------6--|---8---8---8---8----10--|
D|---8---8---8---8---6---|--8---8---8---8---10----|
A|--8---8---8---8---4--4-|-6---6---6---6---8----8-|
E|-6---6---6---6---------|------------------------|

G|--------------------6--|---5---5---5---5---6--|
D|---8---8---8---8---6---|--5---5---5---5---6---|
A|--8---8---8---8---4--4-|-3---3---3---3---4--4-|
E|-6---6---6---6---------|----------------------|

G|--------------------6--|---8---8---8---8----10--|
D|---8---8---8---8---6---|--8---8---8---8---10----|
A|--8---8---8---8---4--4-|-6---6---6---6---8----8-|
E|-6---6---6---6---------|------------------------|

G|----11----11----11----11----10-|---5---5---5---5---6--|
D|--11----11----11----11----10---|--5---5---5---5---6---|
A|-9-----9-----9-----9-----8-----|-3---3---3---3---4--4-|
E|-------------------------------|----------------------|


==== LEAD PLACEMNET ONE ====

0:21 - part 1
e|-----------------------------------------------|
B|---11----9---------------9---------------------|
G|------10---8---10-9-8-10---10---11-10-9-8------|
D|-8----------------------------------------11-7-|
A|-----------------------------------------------|
E|-----------------------------------------------|

e|----------------------------------------------------|
B|----------------------------9-----------------------|
G|--------8-10-8----10-9-8--------11-10-8-9-----------|
D|-8--11---------10--------10---------------11-10-8-7-|
A|----------------------------------------------------|
E|----------------------------------------------------|

e|-----------------------------------------------|
B|---11----9---------------9---------------------|
G|------10---8---10-9-8-10---10---11-10-9-8------|
D|-8----------------------------------------11-7-|
A|-----------------------------------------------|
E|-----------------------------------------------|

e|--------------------------------------------8-9---------------------|
B|-----------------------------------------10-----11-9----------------|
G|--------8-10-8----10-9-8------------8-11-------------10-8-----------|
D|-8--11---------10--------10--7-8-10-----------------------11-10-8-7-|
A|--------------------------------------------------------------------|
E|--------------------------------------------------------------------|

e|----9-------------------------------------------------------------------------------------8-|
B|-11---9-11------11-9---------9--------------------------------------------------------------|
G|-----------10--------10-8-10---8-10------10-9-8-----------------------------8---------------|
D|------------------------------------11---------7--8-8-8-11-8-8-8-11--10-10---10-10-10-10----|
A|--------------------------------------------------------------------------------------------|
E|--------------------------------------------------------------------------------------------|

e|-9-8----8------9-8----8-11-9-8-9----8--9-----8---------------|
B|-----11-------------------------------------------11-----10--|
G|----------10-------10------------10--------------------------|
D|-------------------------------------------------------------|
A|-------------------------------------------------------------|
E|-------------------------------------------------------------|

0:49 - part 2
e|-----------------------------------------------|
B|---11----9---------------9---------------------|
G|------10---8---10-9-8-10---10---11-10-9-8------|
D|-8----------------------------------------11-7-|
A|-----------------------------------------------|
E|-----------------------------------------------|

e|----------------------------------------------------|
B|----------------------------9-----------------------|
G|--------8-10-8----10-9-8--------11-10-8-9-----------|
D|-8--11---------10--------10---------------11-10-8-7-|
A|----------------------------------------------------|
E|----------------------------------------------------|

e|-----------------------------------------------|
B|---11----9---------------9---------------------|
G|------10---8---10-9-8-10---10---11-10-9-8------|
D|-8----------------------------------------11-7-|
A|-----------------------------------------------|
E|-----------------------------------------------|

e|--------------------------------------------------------------------|
B|-------------------------------------------9------------------------|
G|--------8-10-8----10-9-8-------10---8------------10-----------------|
D|-8--11---------10--------10-----------------------------------------|
A|--------------------------------------------------------------------|
E|--------------------------------------------------------------------|

e|----9-------------------------------------------------------------------------------------8-|
B|-11---9-11------11-9---------9--------------------------------------------------------------|
G|-----------10--------10-8-10---8-10------10-9-8-----------------------------8---------------|
D|------------------------------------11---------7--8-8-8-11-8-8-8-11--10-10---10-10-10-10----|
A|--------------------------------------------------------------------------------------------|
E|--------------------------------------------------------------------------------------------|

e|-9-8----8------9-8----8-11-9-8-9-------9----11---13----11-----|
B|-----11----------------------------------------------------11-|
G|----------10-------10------------10------------------------10-|
D|-----------------------------------------------------------8--|
A|--------------------------------------------------------------|
E|--------------------------------------------------------------|


==== LEAD PLACEMNET TWO ====

0:21 - part 1
e|--------------------------------------------------------------------------------------|
B|--------------------------------------------------------------------------------------|
G|--------------------------------------------------------------------------------------|
D|----8---6------------6----------------------------------------6-----------------------|
A|------8---6--8-7-6-8---8---9-8-7-6------------6-8-6---8-7-6-------9-8-7-6-------------|
E|-6---------------------------------9-5--6--9--------8-------8-------------9-8-6-5-(6)-|

e|----------------------------------------------------------------------------------------------|
B|----------------------------------------------------------------------------------------------|
G|---------------------------------------------------------------------------5-6----------------|
D|----8---6------------6---------------------------------------------------7-----8-6------------|
A|------8---6--8-7-6-8---8---9-8-7-6------------6-8-6---8-7-6----------6-9-----------8-6--------|
E|-6---------------------------------9-5--6--9--------8-------8--5-6-8-------------------9-8-6-5|

e|------------------------------------------------------------------------------|
B|------------------------------------------------------------------------------|
G|---6--------------------------------------------------------------------------|
D|-8---6-8-----8-6-------6---------------------------------------------------10-|
A|---------8-------8-6-8---6-8----8-7-6-0---------------------------------------|
E|-----------------------------9-----------6-6-6-9-6-6-6-6-9--8-8-11-8-8-8-8----|

e|----------------------------------------------------------------------|
B|----------------------------------------------------------------------|
G|-----------------------------8----------------------------------------|
D|-11-10-8--10-----11-10---10------11-10-11-----11----10-----8-----7----|
A|-------------8---------8-----------------8----------------------------|
E|----------------------------------------------------------------------|

0:49 - part 2
e|--------------------------------------------------------------------------------------|
B|--------------------------------------------------------------------------------------|
G|--------------------------------------------------------------------------------------|
D|----8---6------------6----------------------------------------6-----------------------|
A|------8---6--8-7-6-8---8---9-8-7-6------------6-8-6---8-7-6-------9-8-7-6-------------|
E|-6---------------------------------9-5--6--9--------8-------8-------------9-8-6-5-(6)-|

e|----------------------------------------------------------------------------------------------|
B|----------------------------------------------------------------------------------------------|
G|----------------------------------------------------------------------------------------------|
D|----8---6------------6---------------------------------------------------6--------------------|
A|------8---6--8-7-6-8---8---9-8-7-6------------6-8-6---8-7-6----8----6----------8--------------|
E|-6---------------------------------9-5--6--9--------8-------8---------------------------------|

e|------------------------------------------------------------------------------|
B|------------------------------------------------------------------------------|
G|---6--------------------------------------------------------------------------|
D|-8---6-8-----8-6-------6---------------------------------------------------10-|
A|---------8-------8-6-8---6-8----8-7-6-0---------------------------------------|
E|-----------------------------9-----------6-6-6-9-6-6-6-6-9--8-8-11-8-8-8-8----|


e|----------------------------------------------------------------------|
B|----------------------------------------------------------------------|
G|-----------------------------8----------------------8----10----8------|
D|-11-10-8--10-----11-10---10------11-10-11-----11-------------------8--|
A|-------------8---------8-----------------8-------------------------8--|
E|-------------------------------------------------------------------6--|


==== LEAD PLACEMENT THREE ====

0:21 - part 1
e|---------------------------------------------------------------|
B|---------------------------------------------------------------|
G|-----15----13------------------13------------------------------|
D|--------15----13---15-14-13-15----15---16-15-14-13-------------|
A|-13------------------------------------------------16-13-12----|
E|---------------------------------------------------------------|

e|---------------------------------------------------------------|
B|---------------------------------------------------------------|
G|-----------------------------------13--------------------------|
D|-----------13-15-13----15-14-13--------16-15-14-13-------------|
A|-13---16------------15----------15-----------------16-15-13-12-|
E|---------------------------------------------------------------|

e|---------------------------------------------------------------|
B|---------------------------------------------------------------|
G|-----15----13------------------13------------------------------|
D|--------15----13---15-14-13-15----15---16-15-14-13-------------|
A|-13------------------------------------------------16-13-12----|
E|---------------------------------------------------------------|

e|----------------------------------------------------------------------------------|
B|-----------------------------------------------------13-14------------------------|
G|--------------------------------------------------14-------15-13------------------|
D|----------13-15-13----15-14-13--------------13-16----------------15-13------------|
A|-13---16-----------15----------15--12-13-15----------------------------16-15-13-12|
E|----------------------------------------------------------------------------------|

e|---------------------------------------------------------------|
B|----14---------------------------------------------------------|
G|-15----13-15-----15-13-----------13----------------------------|
D|-------------15--------15-13--15----13-15-----15-14-13---------|
A|------------------------------------------16-----------12------|
E|---------------------------------------------------------------|

e|---------------------------------------------------------------|
B|-----------------------------------------------------13--------|
G|---------------------------------------------------------------|
D|--------------------------------------13-----------------------|
A|-13-13-13-16-13-13-13-13-16--15-15-15----15-15-15-15-----------|
E|---------------------------------------------------------------|

e|---------------------------------------------------------------|
B|-14-13----13------14-13----13-16-14-13-14-----14---13----------|
G|-------15-----------------------------------------------15--14-|
D|-------------15---------15----------------15-------------------|
A|---------------------------------------------------------------|
E|---------------------------------------------------------------|

0:47 - part 2
e|---------------------------------------------------------------|
B|---------------------------------------------------------------|
G|-----15----13------------------13------------------------------|
D|--------15----13---15-14-13-15----15---16-15-14-13-------------|
A|-13------------------------------------------------16-13-12----|
E|---------------------------------------------------------------|

e|---------------------------------------------------------------|
B|---------------------------------------------------------------|
G|-----------------------------------13--------------------------|
D|-----------13-15-13----15-14-13--------16-15-14-13-------------|
A|-13---16------------15----------15-----------------16-15-13-12-|
E|---------------------------------------------------------------|

e|---------------------------------------------------------------|
B|---------------------------------------------------------------|
G|-----15----13------------------13------------------------------|
D|--------15----13---15-14-13-15----15---16-15-14-13-------------|
A|-13------------------------------------------------16-13-12----|
E|---------------------------------------------------------------|

e|----------------------------------------------------------------------------------|
B|----------------------------------------------------------------------------------|
G|-----------------------------------------------13---------------------------------|
D|----------13-15-13----15-14-13-----15----13-----------15--------------------------|
A|-13---16-----------15----------15-------------------------------------------------|
E|----------------------------------------------------------------------------------|

e|---------------------------------------------------------------|
B|----14---------------------------------------------------------|
G|-15----13-15-----15-13-----------13----------------------------|
D|-------------15--------15-13--15----13-15-----15-14-13---------|
A|------------------------------------------16-----------12------|
E|---------------------------------------------------------------|

e|---------------------------------------------------------------|
B|-----------------------------------------------------13--------|
G|---------------------------------------------------------------|
D|--------------------------------------13-----------------------|
A|-13-13-13-16-13-13-13-13-16--15-15-15----15-15-15-15-----------|
E|---------------------------------------------------------------|

e|--------------------------------------------------------13-----|
B|-14-13----13------14-13----13-16-14-13-14-----14---16-------16-|
G|-------15------------------------------------------------------|
D|-------------15---------15----------------15-------------------|
A|---------------------------------------------------------------|
E|---------------------------------------------------------------|
 

            
Submit corrections


        Beatdown lessons Hard to play? Try these video lessons and learn fast Beatdown lessons
        
↑ Back to top | Tablatures and chords for acoustic guitar and electric guitar, ukulele, drums are parodies/interpretations of the original songs. You may use it for private study, scholarship, research or language learning purposes only