Home » H » Holly Brook »

Holly Brook - Saturdays Tabs

Artists:  A B C D E F G H I J K L M N O P Q R S T U V W X Y Z # 

Saturdays Tabs

(ver. 2) Click to play this song!
Holly Brook
Holly Brook - Saturdays


First tab ive EVER done - still have a lot to learn so bear with me.
You'll have to listen to the song for the strumming pattern.
Please contact me if this needs any changes (im sure it does), for any pointers you can
me, or to tell me how i've done. I appreciate any help i can get.

F#|----0---0------0---0------0---0-------0---0--------|
B |----0---0------0---0------0---0-------0---0--------|
G |---------------------------------------------------|
D |-0-9---9----0-5---5----0-2---2-----0-4---4---------|
A |---------------------------------------------------|
E |---------------------------------------------------|

       Saturday what a day...
|----0---0------0---0------0---0-------0---0--------|
|----0---0------0---0------0---0-------0---0--------|
|---------------------------------------------------|
|-0-9---9----0-5---5----0-2---2-----0-4---4---------|
|---------------------------------------------------|
|---------------------------------------------------|

   how i'd like...
|----0---0------0---0------0---0-------0---0--------|
|----0---0------0---0------0---0-------0---0--------|
|---------------------------------------------------|
|-0-9---9----0-8---8----0-7---7-----0-6---6---------|
|---------------------------------------------------|
|---------------------------------------------------|

   that i...
|----0---0------0---0------0---0-------0--|
|----0---0------0---0------0---0-------0--|
|-----------------------------------------|
|-0-5---5----0-5---5----0-7---7-----0-7---|
|-----------------------------------------|
|-----------------------------------------|

   stop pushin....                          ...take something with you...
|----0---0------0---0------0---0-------0---0------0---0----0--0---0-0-0---|
|----0---0------0---0------0---0-------0---0------0---0----0--0---0-0-0---|
|-------------------------------------------------------------------------|
|-------------------------------------------------------------------------|
|-0-7---9----0-2---2----0-7---9-----0-2---2----0-7---2---55--3------------|
|---------------------------------------------------------------44-4-4----|


As far as i know its pretty much the same throughout the song.
            
Submit corrections

↑ Back to top | Tablatures and chords for acoustic guitar and electric guitar, ukulele, drums are parodies/interpretations of the original songs. You may use it for private study, scholarship, research or language learning purposes only