» » »

Hit The Lights - These Backs Are Made For Stabbing Tabs

Artists:  A B C D E F G H I J K L M N O P Q R S T U V W X Y Z # 

These Backs Are Made For Stabbing Tabs

(ver. 3) Click to play this song!
Hit The Lights
 Rating:
4/5 (4 votes)

 These Backs Are Made For Stabbing lessons Tabs too difficult? Try these video lessons and learn fast
 
                -------------------------------------------------------------------------
                 Hit the Lights-These Backs Are Made For Stabbing
-------------------------------------------------------------------------



Intro:

e-------------------------------------------------------------|
B------3h4------3h4-------------------------------------------|
G---------3--------3------------------------------------------|
D---1--------1-----------xx------666666666--------------------|
A---1--------1-----------xx------666666666--------------------|
D---1--------1-----------xx------666666666--------------------|

Repeat 4x

Verse:

Guitar 1:
e-------------------------------------------------------------|
B-------3333333333s44444444444--------------------------------|
G-------------------------------------------------------------|
D-------------------------------------------------------------|
A-------------------------------------------------------------|
D-------------------------------------------------------------|
Repeat 4 times, then after that strum the 3 and 4 part.


Guitar 2:

p.m. 
   .   ...   ...   ...  ...
e-------------------------------------------------------------|
B-------------------------------------------------------------|
G-------------------------------------------------------------|
D--1---111---111---666--888-----------------------------------|
A--1---111---111---666--888-----------------------------------|
D--1---111---111---666--888-----------------------------------|
  .. .. .. .. .. .. .. .. ..  .. ..  
e-------------------------------------------------------------|
B-------------------------------------------------------------|
G-------------------------------------------------------------|
D-11-11-11-11-11-11-66-66-66--88-88--888----------------------|
A-11-11-11-11-11-11-66-66-66--88-88--888----------------------|
D-11-11-11-11-11-11-66-66-66--88-88--888----------------------|

Pre Chorus:

e-------------------------------------------------------------|
B-------------------------------------------------------------|
G-------------------------888888888---------------------------|
D--101010101010-888888888-xxxxxxxxx---------------------------|
A--101010101010-888888888-666666666---------------------------|
D--101010101010-888888888-------------------------------------|

e-------------------------------------------------------------|
B-------------------------------------------------------------|
G-------------------------------------------------------------|
D--101010101010-888888888-66666666666--6/---------------------|
A--101010101010-888888888-66666666666--6/---------------------|
D--101010101010-888888888-66666666666--6/---------------------|


Chorus:
e-------------------------------------------------------------|
B-------------------------------------------------------------|
G-------------------------------------------------------------|
D--11111111-33--888/101010---10101010-88888-66666666----------|
A--11111111-11--666/-8-8-8---10101010-88888-66666666----------|
D--11111111------------------10101010-88888-66666666----------|

Repeat 2 Times

(Repeat Intro)

Break:

e----------00---------------------------------------------------|
B----------00---------------------------------------------------|
G----------00---------------------------------------------------|
D--1~--3~-----888-101010----101010-888--6~----------------------|
A--1~--1~-----666--8-8-8----101010-888--6~----------------------|
D--1~-----------------------101010-888--6~----------------------|

Repeat 2x (On the last end w/ this)

e----------------------|
B----------------------|
G----------------------|
D----6666666-----------|
A----6666666-----------|
D----6666666-----------|

Repeat Pre-Chorus
Repeat Chorus

End:

e-------------------------------------------------------------|
B-------------------------------------------------------------|
G--888-101010-88----------------------------------------------|
D--xxx-xxxxxx/xx-66666666--1111xx1111xx111xx000xx000----------|
A--666--8-8-8/66-66666666--1111xx1111xx111xx000xx000----------|
D----------------66666666--1111xx1111xx111xx000xx000----------|

Repeat twice and end with this


e-----------------|
B-----------------|
G-----------------|
D---666666666-----|
A---666666666-----|
D---666666666-----|


Then...
Guitar 1
                         ..........
e-------------------------------------------------------------|
B-------------------------------------------------------------|
G-------------------------------------------------------------|
D--1~---8~----10~----8~--6666666666---------------------------|
A--1~---6~----10~----8~--6666666666---------------------------|
D--1~---------10~----8~--6666666666---------------------------|


Guitar 2

e-------------------------|
B----4-3----4-3-----------|
G--------3------3---------|
D-------------------------|
A-------------------------|
D-------------------------|

Then:
Repeat Chorus



That's IT!!! 
Please Comment and Rate!!!
            
Submit corrections


        These Backs Are Made For Stabbing lessons Hard to play? Try these video lessons and learn fast These Backs Are Made For Stabbing lessons
        
↑ Back to top | Tablatures and chords for acoustic guitar and electric guitar, ukulele, drums are parodies/interpretations of the original songs. You may use it for private study, scholarship, research or language learning purposes only