» » »

Hit The Lights - Speakers Blown Tabs

Artists:  A B C D E F G H I J K L M N O P Q R S T U V W X Y Z # 

Speakers Blown Tabs

(ver. 2) Click to play this song!
Hit The Lights
 Rating:
4/5 (4 votes)

 Speakers Blown lessons Tabs too difficult? Try these video lessons and learn fast
 
                Ok this is a great song and i hate to see that some people have got the easiest parts of 
wrong like the solo. But like anyone im not perfect so it will not be 100% accurate

.-pm
h- hammer on

Into
:Clean:
|----------------------------------|
|----------------------------------|
|----------------------------------|
|-5-5-5-5-5-5-5-5--4-4-4-4-4-4-4-4-|   X2
|-3-3-3-3-3-3-3-3--2-2-2-2-2-2-2-2-|
|----------------------------------|
  . . . . . . . . . . . . . . . . .

|-----------------------------------------------------------------------|
|-----------------------------------------------------------------------|
|-----------------------------------------------------------------------|
|-5-5-----------------------------4-4-----------------------------------|
|-3-3-----------------------------2-2-----------------------------------|
|-3-3-----------------------------2-2-----------------------------------|
     Radio with the speakers blown    Trebble high and the bass down low


|-------------------------------------------------|
|-------------------------------------------------|
|-------------------------------------------------|
|-5-5-5-5-5-5-5-5-5-5-5-5-5-5-5-5-5-5-5-5-5-5-5-5-|
|-3-3-3-3-3-3-3-3-3-3-3-3-3-3-3-3-3-3-3-3-3-3-3-3-|
|-3-3-3-3-3-3-3-3-3-3-3-3-3-3-3-3-3-3-3-3-3-3-3-3-|
                                Down low...


Verse 1
|---------------------------------|
|---------------------------------|
|---------------------------------|
|-5-5-5-5-5-5-5-5-4-4-4-4-4-4-4-4-|
|-3-3-3-3-3-3-3-3-2-2-2-2-2-2-2-2-|  X2
|-3-3-3-3-3-3-3-3-2-2-2-2-2-2-2-2-|
  . . . . . . . . . . . . . . . .

|--------------------------------------------------------------|
|--------------------------------------------------------------|
|--------------------------------------------------------------|
|-55-5---5--5-5-5-5-5-5-5-5-5-5-5-5-5-5-5------5-5-5-5-5-5-5-5-|
|-33-3---5--5-5-5-5-5-5-5-5-5-5-5-5-5-5-5-(X2)-3-3-3-3-3-3-3-3-|
|-33-3---3--3-3-3-3-3-3-3-3-3-3-3-3-3-3-3------3-3-3-3-3-3-3-3-|

|-----------------|
|-----------------|
|-----------------|
|-5-5-5-5-5-5-5-5-|
|-3-3-3-3-3-3-3-3-|
|-3-3-3-3-3-3-3-3-|

|---------------------------------|
|---------------------------------|
|---------------------------------|
|-7-7-7-7-5-5-5-5-5-5-5-5-5-5-5-5-|
|-5-5-5-5-3-3-3-3-5-5-5-5-5-5-5-5-|
|-5-5-5-5-3-3-3-3-3-3-3-3-3-3-3-3-|

|-------------------------|
|-------------------------|
|-------------------------|
|-7-7-5-5-5-5-5-5-5-5-5-5-|
|-5-5-3-3-5-5-5-5-5-5-5-5-|
|-5-5-3-3-3-3-3-3-3-3-3-3-|

Chorus
:Light Distortion:
|-----------------------------------------------------------------|
|-----------------------------------------------------------------|
|-----------------------------------------------------------------|
|-9-9-9-9-9-9-9-9-9-9-9-9-9-9-9-9-7-7-7-7-7-7-7-7-7-7-7-7-7-7-7-7-|
|-7-7-7-7-7-7-7-7-7-7-7-7-7-7-7-7-5-5-5-5-5-5-5-5-5-5-5-5-5-5-5-5-|  X4
|-7-7-7-7-7-7-7-7-7-7-7-7-7-7-7-7-5-5-5-5-5-5-5-5-5-5-5-5-5-5-5-5-|

Verse 2
:Light Distortion:
(this vers has a different strumming pattern to the first)
|-----------------------------------|
|-----------------------------------|
|-----------------------------------|
|-5-5-5-5-5-5-5-55-5-5-5-5-5-5-5-55-|
|-3-3-3-3-3-3-3-33-5-5-5-5-5-5-5-55-| (X2)
|-3-3-3-3-3-3-3-33-3-3-3-3-3-3-3-33-|

|--------------------------------------------------------------|
|--------------------------------------------------------------|
|--------------------------------------------------------------|
|-55-5---5--5-5-5-5-5-5-5-5-5-5-5-5-5-5-5------5-5-5-5-5-5-5-5-|
|-33-3---5--5-5-5-5-5-5-5-5-5-5-5-5-5-5-5-(X2)-3-3-3-3-3-3-3-3-|
|-33-3---3--3-3-3-3-3-3-3-3-3-3-3-3-3-3-3------3-3-3-3-3-3-3-3-|

|---------------------------------|
|---------------------------------|
|---------------------------------|
|-7-7-7-7-5-5-5-5-5-5-5-5-5-5-5-5-|
|-5-5-5-5-3-3-3-3-5-5-5-5-5-5-5-5-|
|-5-5-5-5-3-3-3-3-3-3-3-3-3-3-3-3-|

|-------------------------|
|-------------------------|
|-------------------------|
|-7-7-5-5-5-5-5-5-5-5-5-5-|
|-5-5-3-3-5-5-5-5-5-5-5-5-|
|-5-5-3-3-3-3-3-3-3-3-3-3-|

Chorus

Bridge
|----------------------------------------------------------------------|
|----------------------------------------------------------------------|
|----------------------------------------------------------------------|
|-7-7-7-7-7-7-7-7-5-5-5-5-5-5-5-5-5-5-5-5-5-5-5-5-7-7-7-7-7-7-7-7-7~---|
|-7-7-7-7-7-7-7-7-3-3-3-3-3-3-3-3-3-3-3-3-3-3-3-3-7-7-7-7-7-7-7-7-7~---|  X2
|-5-5-5-5-5-5-5-5-3-3-3-3-3-3-3-3-3-3-3-3-3-3-3-3-5-5-5-5-5-5-5-5-5~---|

|----------------------------------|
|----------------------------------|
|----------------------------------|
|-5-5-5-5-5-5-5-5--4-4-4-4-4-4-4-4-|   X2
|-3-3-3-3-3-3-3-3--2-2-2-2-2-2-2-2-|
|----------------------------------|
  . . . . . . . . . . . . . . . . .

:Heavy Distortion:
|---------------------------------------------------|
|---------------------------------------------------|
|---------------------------------------------------|
|-5-5-5-5-5-5-4-4-4-4-4-4---------------------------|
|-3-3-3-3-3-3-2-2-2-2-2-2---------------------------|
|-3-3-3-3-3-3-2-2-2-2-2-2---------------------------|
     Radio with the speakers blown...


|-------------------------------------------------|
|-------------------------------------------------|
|-------------------------------------------------|
|-5-5-5-5-5-5-5-5-5-5-5-5-5-5-5-5-5-5-5-5-5-5-5-5-|
|-3-3-3-3-3-3-3-3-3-3-3-3-3-3-3-3-3-3-3-3-3-3-3-3-|
|-3-3-3-3-3-3-3-3-3-3-3-3-3-3-3-3-3-3-3-3-3-3-3-3-|
                                Down low...

Solo
|-------------------------------------------|
|-----------------7-----------5-4-2-h4-2----|
|-8-6-8-8-6-8-6-4---8-6-8-6-4-----------4---|
|-------------------------------------------|
|-------------------------------------------|
|-------------------------------------------|

Chorus

Outro
|------------|
|------------|
|------------|
|-7~--7~--9~-|
|-5~--7~--7~-|
|-5~--5~--7~-|

If there is anything i have missed or any part of the tab is totaly inacurate please tell me.
            
Submit corrections


        Speakers Blown lessons Hard to play? Try these video lessons and learn fast Speakers Blown lessons
        
↑ Back to top | Tablatures and chords for acoustic guitar and electric guitar, ukulele, drums are parodies/interpretations of the original songs. You may use it for private study, scholarship, research or language learning purposes only