» » »

Hillsong United - Revolution Tabs

Artists:  A B C D E F G H I J K L M N O P Q R S T U V W X Y Z # 

Revolution Tabs

(ver. 1) Click to play this song!
Hillsong United
 Rating:
4.3/5 (9 votes)

 Revolution lessons Tabs too difficult? Try these video lessons and learn fast
 
                [INTRO]
  (8x)(8x)(8x)(8x)(8x)(8x)(8x)(8x)
E|-----------------------------------------|
B|-14--12--11--12--12--11--9---12----------| 
G|-11--11--11--11--11--11--10--10----------| 2x
D|-13--13--13--13--11--11--11--12----------|
A|-----------------------------------------|
E|-----------------------------------------|

[VERSES]
                (4x) (4x) (4x) (4x)
E|-----------------------------------------|
B|-----------------------------------------|
G|-x-x-8---------6-/--8-/--10-/-11---------|  2x
D|-x-x-8-(8x)----x----x----x----x--(2x)----|
A|-x-x-6---------4-/--6-/--8--/-9----------|
E|-----------------------------------------|

[PRECHORUS]
G#m B

[CHORUS]
F# B G#m Ebm
F# B
G#m (scratch)

[REPEAT INTRO]
[VERSES]
[CHORUS 2x]

[SOLO]
         4x             4x             4x             4x
E|--------------------------------------------------------------|
B|-------------14-------------12-------------11-------------12--|
G|-------11-11----------11-11----------11-11----------11-11-----|
D|-13-13----------13-13----------13-13----------13-13-----------|
A|--------------------------------------------------------------|
E|--------------------------------------------------------------|
PM . . . .         . . . .         . . . .         . . . .

               4x             4x                                   4x
E|----------------------------------------------------------------------|
B|-------------12-------------11-------------9-9-------------------12---|
G|-------11-11----------11-11----------10-10-----10-10-------10-10------|
D|-11-11----------11-11----------11-11-----------------12-12------------|
A|----------------------------------------------------------------------|
E|----------------------------------------------------------------------|
PM . . . .         . . . .         . . . .         . . . .

         4x             4x             4x             4x
E|--------------------------------------------------------------|
B|-------------14-------------12-------------11-------------12--|
G|-------11-11----------11-11----------11-11----------11-11-----|
D|-13-13----------13-13----------13-13----------13-13-----------|
A|--------------------------------------------------------------|
E|--------------------------------------------------------------|
PM . . . .         . . . .         . . . .         . . . .

               4x             4x                                   
E|-----------------------------------------------------------------------|
B|-------------12-------------11-------------9-9-------------------12\\\-|
G|-------11-11----------11-11----------10-10-----10-10-------10-10-------|
D|-11-11----------11-11----------11-11-----------------12-12-------------|
A|-----------------------------------------------------------------------|
E|-----------------------------------------------------------------------|

[BRIDGE]
                   (4x)(4x)(4x)(4x)
E|---------------------------------------|
B|---------------------------------------|
G|-8\\\---x-x-------6---8---10--11-------|
D|-x------x-x-(2x)--x---x---x---x---(2x)-| 2x
A|-6-\\\--x-x-------4---6---8---9--------|
E|---------------------------------------|

E|-----------------------------------------------------------------|
B|-----------------------------------------------------------------|
G|---------6-6-6-6---------6-6-6-6---------6-6-6-6---------6-6-6-6-|
D|-----4-4-------------4-4-------------4-4-------------4-4---------|
A|-6-6-------------6-6---------------------------------------------|
E|---------------------------------7-7-------------7-7-------------|

E|-----------------------------------------------------------------|
B|-----------------------------------------6-6---------------------|
G|---------6-6-6-6---------6-6-6-6-----6-6-----6-6---------7-7-7-7-|
D|-----4-4-------------4-4-----------------------------3-3---------|   
A|---------------------------------4-4-------------5-5-------------|
E|-6-6-------------6-6---------------------------------------------|   2x

then
E|-----------------------------------------------------------------|
B|-----------------------------------------------------------------|
G|-------------8-8-------------8-8-------------8-8-------------8-8-|
D|---------9-9-------------9-9-------------9-9-------------9-9-----|
A|-6-6-9-9---------6-6-9-9-------------9-9-------------9-9---------|
E|---------------------------------7-7-------------7-7-------------|
PM . . . . . .     . . . . . .     . . . . . .     . . . . . .

[LAST CHORUS]
F# B G#m Ebm
F# B G#m B     2x
            
Submit corrections


        Revolution lessons Hard to play? Try these video lessons and learn fast Revolution lessons
        
↑ Back to top | Tablatures and chords for acoustic guitar and electric guitar, ukulele, drums are parodies/interpretations of the original songs. You may use it for private study, scholarship, research or language learning purposes only