» » »

Hillsong United - Prince Of Peace Tabs

Artists:  A B C D E F G H I J K L M N O P Q R S T U V W X Y Z # 

Prince Of Peace Tabs

(ver. 1) Click to play this song!
Hillsong United
 Rating:
4.1/5 (31 vote)

 Prince Of Peace  lessons Tabs too difficult? Try these video lessons and learn fast
 
                [Intro]

    F                                Em
E|--------------------------------|---------------------------------|
B|--------------------------------|---------------------------------|
G|--------0------0------0------0--|--------0------0------0------0---|
D|----3------3------3------3------|----2------2------2------2-------|
A|--3---3------3------3------3----|--2---2------2------2------2-----|
E|--------------------------------|---------------------------------|   (x2)


[Verse]

    F                                Em
E|--------------------------------|---------------------------------|
B|--------------------------------|---------------------------------|
G|--------0------0------0------0--|--------0------0------0------0---|
D|----3------3------3------3------|----2------2------2------2-------|
A|--3---3------3------3------3----|--2---2------2------2------2-----|
E|--------------------------------|---------------------------------|   (x2)


[Pre-Chorus]

    Am                                      Em
E|---------------------------------------|---------------------------------------|
B|--------1-----------------1------------|--------0-----------------0------------|
G|-----------------0-----------------0---|-----------------0-----------------0---|
D|----2--------2--------2--------2-------|----2--------2--------2--------2-------|
A|--0---0----0---0----0---0----0---0-----|--2---2----2---2----2---2----2---2-----|
E|---------------------------------------|---------------------------------------|   (x2)


[Chorus]

    C                                     Dm7
E|--------0-----------------0-----------|--------1-------------------------------|
B|-----------------1-----------------1--|----------------3-------1-------0-------|
G|----0--------0--------0--------0------|----2-------2-------2-------2-----------|
D|--------------------------------------|--0---0---0---0---0---0---0---0---------|
A|--3---3----3---3----3---3----3---3----|----------------------------------------|
E|--------------------------------------|----------------------------------------|
    Am                                      F
E|---------------------------------------|---------------------------------------|
B|--------1-----------------1------------|--------1-----------------1------------|
G|-----------------0-----------------0---|-----------------0-----------------0---|
D|----2--------2--------2--------2-------|----2--------2--------2--------2-------|
A|--0---0----0---0----0---0----0---0-----|--2---2----2---2----2---2----2---2-----|
E|---------------------------------------|---------------------------------------|

    C                                     Dm7
E|--------0-----------------0-----------|--------1-------------------------------|
B|-----------------1-----------------1--|----------------3-------1-------0-------|
G|----0--------0--------0--------0------|----2-------2-------2-------2-----------|
D|--------------------------------------|--0---0---0---0---0---0---0---0---------|
A|--3---3----3---3----3---3----3---3----|----------------------------------------|
E|--------------------------------------|----------------------------------------|

    Am                                      Em
E|---------------------------------------|---------------------------------------|
B|--------1-----------------1------------|--------0-----------------0------------|
G|-----------------0-----------------0---|-----------------0-----------------0---|
D|----2--------2--------2--------2-------|----2--------2--------2--------2-------|
A|--0---0----0---0----0---0----0---0-----|--2---2----2---2----2---2----2---2-----|
E|---------------------------------------|---------------------------------------|            
Submit corrections


        Prince Of Peace  lessons Hard to play? Try these video lessons and learn fast Prince Of Peace  lessons
        
↑ Back to top | Tablatures and chords for acoustic guitar and electric guitar, ukulele, drums are parodies/interpretations of the original songs. You may use it for private study, scholarship, research or language learning purposes only