» » »

Hillsong United - Only One Tabs

Artists:  A B C D E F G H I J K L M N O P Q R S T U V W X Y Z # 

Only One Tabs

(ver. 1) Click to play this song!
Hillsong United
 Rating:
4/5 (4 votes)

 Only One lessons Tabs too difficult? Try these video lessons and learn fast
 
                ----------------------------------------------------------------------------
----------------------------------------------------------------------------



Tuning: Standard (EADGBe)


Intro/ Verse 1:
e|----------------6666666666666666-----------------6666666666666666---------|
B|7777777777779999-----------------7777777777779999-----------------7(hold)-|
G|--------------------------------------------------------------------------|
D|--------------------------------------------------------------------------|
A|--------------------------------------------------------------------------|
E|--------------------------------------------------------------------------|

Into Verse 2:
e|-------------------------|
B|-------------------------|
G|-444-4-4-444-444-4-4-444-|
D|-444-4-4-444-444-4-4-444-| 
A|-222-2-2-222-222-2-2-222-|          
E|-------------------------|

Verse 2:
e|---6--6--6-76---6--6--6-76-4--4--4--4-------------------|
B|-79-79-79-7---79-79-79-7----67-67-67-67-----------------|
G|----------------------------------------444-4-4-444-4-4-|
D|----------------------------------------444-4-4-444-4-4-|
A|----------------------------------------222-2-2-222-2-2-|
E|--------------------------------------------------------|

Pre-chorus:

e|-------6-|
B|-7-9-7---|
G|---------|
D|---------|
A|---------|
E|---------|

Chorus:

e|-------------------------           -----------------------|
B|-------------------------           -----------------------|
G|-6/8-888-4444-------6666-           -6/8-888-4444-66666666-|
D|-6/8-888-4444-4-444-6666-X3 4th time-6/8-888-4444-66666666-|
A|-4/6-666-2222-4-444-4444-           -4/6-666-2222-44444444-|
E|--------------2-222------           -----------------------|

Into Verse 3:

e|---6--76-|
B|-79--7---|
G|---------|
D|---------| X4
A|---------|
E|---------|

Verse 3:

e|---6--6--6-76---6--6--6-76-4--4--4--4-------------------|
B|-79-79-79-7---79-79-79-7----67-67-67-67-----------------|
G|----------------------------------------444-4-4-444-4-4-|
D|----------------------------------------444-4-4-444-4-4-|
A|----------------------------------------222-2-2-222-2-2-|
E|--------------------------------------------------------|

Pre-Chorus:

e|-------6-|
B|-7-9-7---|
G|---------|
D|---------|
A|---------|
E|---------|

Chorus:

e|-------------------------           -----------------------|
B|-------------------------           -----------------------|
G|-6/8-888-4444-------6666-           -6/8-888-4444-66666666-|
D|-6/8-888-4444-4-444-6666-X3 4th time-6/8-888-4444-66666666-|
A|-4/6-666-2222-4-444-4444-           -4/6-666-2222-44444444-|
E|--------------2-222------           -----------------------|

Into Bridge:

e|---6--76---6--76---6------------|
B|-79--7---79--7---79--79-4(hold)-|
G|--------------------------------| 
D|--------------------------------|  
A|--------------------------------|
E|--------------------------------|


Bridge (somewhat):

e|-------6-    ----|
B|-7-9-7---    ----|
G|--------- X2 -88-|
D|---------    -88-|
A|---------    -66-|
E|---------    ----|

Drum solo: No Guitar

Chorus:

e|-----------------------------------------------|
B|-----------------------------------------------|
G|-6/8-888-4444-------6666-6/8-888-4444-66666666-|
D|-6/8-888-4444-4-444-6666-6/8-888-4444-66666666-|
A|-4/6-666-2222-4-444-4444-4/6-666-2222-44444444-|
E|--------------2-222----------------------------|

e|-------------------------           -----------------------|
B|-------------------------           -----------------------|
G|-6/8-888-4444-------6666-           -6/8-888-4444-66666666-|
D|-6/8-888-4444-4-444-6666-X3 4th time-6/8-888-4444-66666666-|
A|-4/6-666-2222-4-444-4444-           -4/6-666-2222-44444444-|
E|--------------2-222------           -----------------------|

Outro:

e|---6--76-              ---6------------|
B|-79--7---              -79--79-7(hold)-|
G|--------- X 7 8th time ----------------|
D|---------              ----------------|
A|---------              ----------------|
E|---------              ----------------|

This song is very easy and fun to play the tab is just a bit awkward to read. Anyways 
comment it and enjoy

God Bless
Brandon


| /  slide up
| \  slide down
| h  hammer-on
| p  pull-off
| ~  vibrato
| +  harmonic
| x  Mute note
============================================================================
            
Submit corrections


        Only One lessons Hard to play? Try these video lessons and learn fast Only One lessons
        
↑ Back to top | Tablatures and chords for acoustic guitar and electric guitar, ukulele, drums are parodies/interpretations of the original songs. You may use it for private study, scholarship, research or language learning purposes only