» » »

Hillsong United - Nothing Like Your Love Tabs

Artists:  A B C D E F G H I J K L M N O P Q R S T U V W X Y Z # 

Nothing Like Your Love Tabs

(ver. 1) Click to play this song!
Hillsong United
 Rating:
4.4/5 (8 votes)

 Nothing Like Your Love lessons Tabs too difficult? Try these video lessons and learn fast
 
                [Bridge]
         A(sus4)  Bm7    E/G#                 E
e|-------5--------7-(7)--8--------------------0-------------------------------------|
B|-------0--------0-(0)--9-------------------(11)-----------------------------------|
G|-------0--------0-(7)--7--------------------9-------------------------------------|
D|-------6--------7-(7)--9--------------------9-------------------------------------|
A|-------5--------0-(0)--x--------------------0-------------------------------------|
E|----------------0-(0)--x--------------------0-------------------------------------|
   Your love    amazing Fills my heart and I sing out

   E (Power chord)            D (power chord)                A4    Bm7
e|-0--------------------------x------------------------------5-----7-------------|
B|-7--------------------------5------------------------------0-----0-------------|
G|-6--------------------------4------------------------------0-----0-------------|
D|-9--------------------------7------------------------------6-----7-------------|
A|-x--------------------------x------------------------------5-----0-------------|
E|-x--------------------------x------------------------------------0-------------| repeats half million times
       There is none like you,   there is nothing like your love amazing             lol
            
Submit corrections


        Nothing Like Your Love lessons Hard to play? Try these video lessons and learn fast Nothing Like Your Love lessons
        
↑ Back to top | Tablatures and chords for acoustic guitar and electric guitar, ukulele, drums are parodies/interpretations of the original songs. You may use it for private study, scholarship, research or language learning purposes only