» » »

Hillsong United - Man Of Sorrows Tabs

Artists:  A B C D E F G H I J K L M N O P Q R S T U V W X Y Z # 

Man Of Sorrows Tabs

(ver. 1) Click to play this song!
Hillsong United
 Rating:
4/5 (4 votes)

 Man Of Sorrows lessons Tabs too difficult? Try these video lessons and learn fast
 
                Tuning:Standard 
Verse 1 (man of sorrows)
e|-----------------------------------------------------------|
B|-----------------------------------------------------------|
G|-------2-4-2---4-6-2---------------2-4-2-------------------|
D|-0-2-4-------4-------2-4-2-0-4-2-4-------4-4-2-0-2-4-2-0-0-|
A|-----------------------------------------------------------|
E|-----------------------------------------------------------|
Verse 2 (silent as he)
e|-----------------------------------------------------------|
B|-----------------------------------------------------------|
G|-------2-4-2---4-6-7-------------2-4-2---------------------|
D|-0-2-4-------4-------2-4-2-0-2-4-------4-4-2-0-2-4-2-0-0---|
A|-----------------------------------------------------------|
E|-----------------------------------------------------------|
Final verse (see the stone)
e------------------------------------------------------------|
B------------------------------------------------------------|
G-------2-4-2---4-7-6-4-------------2-4-2---6-7-7-6-7-7------|
D-0-2-4-------4---------0-4-2-4-2-4-------4------------------|
A------------------------------------------------------------|
E------------------------------------------------------------|
Chorus (oh that rugged cross)
e|---------------------------------------------------------------------------|
B|---------------------------------------------------------------------------|
G|-7-6-4-4-2---2-2---7-6-4-4-2---2-2-7-6-4-4-2-4-6-7-7-6-0-------------------|
D|-----------4-----2-----------4---------------------------4-2-2-0-2-0-------|
A|---------------------------------------------------------------------------|
E|---------------------------------------------------------------------------|
Bridge (Now my debt is paid)
e|---------------------------------------------------------------------------|
B|---------------------------------------------------------------------------|
G|---------0-------0-----------0-------0------X however many times you want--|
D|-0-2-4-4---0-2-4---2-0-2-4-4---0-2-4---2-----------------------------------|
A|---------------------------------------------------------------------------|
E|---------------------------------------------------------------------------|
            
Submit corrections


        Man Of Sorrows lessons Hard to play? Try these video lessons and learn fast Man Of Sorrows lessons
        
↑ Back to top | Tablatures and chords for acoustic guitar and electric guitar, ukulele, drums are parodies/interpretations of the original songs. You may use it for private study, scholarship, research or language learning purposes only