» » »

Hillsong United - Like Incense Tabs

Artists:  A B C D E F G H I J K L M N O P Q R S T U V W X Y Z # 

Like Incense Tabs

(ver. 1) Click to play this song!
Hillsong United
 Rating:
4.3/5 (12 votes)

 Like Incense  lessons Tabs too difficult? Try these video lessons and learn fast
 
                [Intro]
e|---------------------------------------------------------------------------|
B|---10--10--10--10--10--10--10--10--10--10--10--10--10--10--10--10----------|
G|---------------------------------------------------------------------------|
D|-10--10--10--10--10--10--10--10--10--10--10--10--10--10--10--10------------|
A|---------------------------------------------------------------------------|
E|---------------------------------------------------------------------------|

e|---------------------------------------------------------------------------|
B|---13--13--13--13--13--13--13--13--13--13--13--13--13--13--13--13----------|
G|-10--10--10--10--10--10--10--10--10--10--10--10--10--10--10--10------------|
D|---------------------------------------------------------------------------|
A|---------------------------------------------------------------------------|
E|---------------------------------------------------------------------------|

e|---------------------------------------------------------------------------|
B|---10--10--10--10\-8-8-8-8/--10--10--10--10\-8-8-8-8-----------------------|
G|---------------------------------------------------------------------------|
D|-10--10--10--10\--8-8-8-8/-10--10--10--10\--8-8-8-8------------------------|
A|---------------------------------------------------------------------------|
E|---------------------------------------------------------------------------|

e|--10-10-10-10-10-10-10-10--------------------------------------------------|
B|-8--8--8--8--8--8--8--8-----13--13--13--13--13--13--13--13-----------------|
G|--------------------------10--10--10--10--10--10--10--10-------------------|
D|---------------------------------------------------------------------------|
A|---------------------------------------------------------------------------|
E|---------------------------------------------------------------------------|

(For the last bar, you can also play like this, choose which is better for you)
e|---------------------------------------------------------------------------|
B|---15--15--15--15--15--15--15--15---13--13--13--13--13--13--13--13---------|
G|-12--12--12--12--12--12--12--12---10--10--10--10--10--10--10--10-----------|
D|---------------------------------------------------------------------------|
A|---------------------------------------------------------------------------|
E|---------------------------------------------------------------------------|            
Submit corrections


        Like Incense  lessons Hard to play? Try these video lessons and learn fast Like Incense  lessons
        
↑ Back to top | Tablatures and chords for acoustic guitar and electric guitar, ukulele, drums are parodies/interpretations of the original songs. You may use it for private study, scholarship, research or language learning purposes only