» » »

Hillsong United - Heart Like Heaven Falling Tabs

Artists:  A B C D E F G H I J K L M N O P Q R S T U V W X Y Z # 

Heart Like Heaven Falling Tabs

(ver. 1) Click to play this song!
Hillsong United
 Rating:
4.3/5 (6 votes)

 Heart Like Heaven Falling lessons Tabs too difficult? Try these video lessons and learn fast
 
                [Intro]
e|----3---3---3---3---3---3---3---3---3---3---3---3---3---3---3---3---|
B|--------------------------------------------------------------------|
G|------0---0---0---0---0---0---0---0---0---0---0---0---0---0---0---0-|
D|--------------------------------------------------------------------|
A|--------------------------------------------------------------------|
E|--------------------------------------------------------------------|

e|-2---2---0---0---0---0---0---0-----------7---7---7---7---7---7---5---5---7---7---7---7---7---7---7---7---|
B|---------------------------------3---3-------------------------------------------------------------------|
G|---2---2---0---0---0---0---0---0---0---0---7---7---7---7---7---7---4---4---7---7---7---7---7---7---7---7-|
D|---------------------------------------------------------------------------------------------------------|
A|---------------------------------------------------------------------------------------------------------|
E|---------------------------------------------------------------------------------------------------------|  

[Verse 1]
  Holy no measure knows your worth.....
e|-3---3---3---3---3---3---2---2---0---0---0---0---0---0-----------|
B|---------------------------------------------------------3---3---|
G|---0---0---0---0---0---0---2---2---0---0---0---0---0---0---0---0-|
D|-----------------------------------------------------------------|
A|-----------------------------------------------------------------|
E|-----------------------------------------------------------------|

e|-7---7---7---7---7---7---5---5---7---7---7---7---7---7---5---5---|
B|-----------------------------------------------------------------|
G|---7---7---7---7---7---7---4---4---7---7---7---7---7---7---4---4-|
D|-----------------------------------------------------------------|
A|-----------------------------------------------------------------|
E|-----------------------------------------------------------------|

  Face down where mercy finds me first...
e|-3---3---3---3---3---3---2---2---0---0---0---0---0---0-----------|
B|---------------------------------------------------------3---3---|
G|---0---0---0---0---0---0---2---2---0---0---0---0---0---0---0---0-|
D|-----------------------------------------------------------------|
A|-----------------------------------------------------------------|
E|-----------------------------------------------------------------|

e|-7---7---7---7---7---7---5---5---7---7---7---7---7---7---7---7---|
B|-----------------------------------------------------------------|
G|---7---7---7---7---7---7---4---4---7---7---7---7---7---7---7---7-|
D|-----------------------------------------------------------------|
A|-----------------------------------------------------------------|
E|-----------------------------------------------------------------|

[Pre-Chorus 1]

 Oh oh oh ohhhhh if you sought perfection.... 

e|---------------------------------------------------------------------|
B|-5---5---5---5---5---8---8---8---8---7---7---7---7---3---3---3---3---|
G|---0---0---0---0---0---0---0---0---0---0---0---0---0---0---0---0---0-|
D|---------------------------------------------------------------------|
A|---------------------------------------------------------------------|
E|---------------------------------------------------------------------|
   
(x3)
e|-----------------------------------------------------------------|
B|-5---5---5---5---5---5---5---5---5---5---5---5---5---5---5---5---|
G|---0---0---0---0---0---0---0---0---0---0---0---0---0---0---0---0-|
D|-----------------------------------------------------------------|
A|-----------------------------------------------------------------|
E|-----------------------------------------------------------------|

[Chorus]
  Singing holy....
e|-7---7---7---7---7---7---7---7---8---8---8---8---8---7---5---5---|
B|-----------------------------------------------------------------|
G|---7---7---7---7---7---7---7---7---7---7---7---7---7---7---4---4-|
D|-----------------------------------------------------------------|
A|-----------------------------------------------------------------|
E|-----------------------------------------------------------------|

  Holy, God Almighty
e|-3---3---3---3---3---3---3---3---3---3---3---3---3---3---5---5---|
B|-----------------------------------------------------------------|
G|---0---0---0---0---0---0---0---0---0---0---0---0---0---0---4---4-|
D|-----------------------------------------------------------------|
A|-----------------------------------------------------------------|
E|-----------------------------------------------------------------|
  
  Heart broke sound,
e|-7---7---7---7---7---7---7---7---7---7---7---7---5---5---5---5---|
B|-----------------------------------------------------------------|
G|---7---7---7---7---7---7---7---7---7---7---7---7---4---4---4---4-|
D|-----------------------------------------------------------------|
A|-----------------------------------------------------------------|
E|-----------------------------------------------------------------|
  
  Your name....
e|-3---3---3---3---3---3---3---3---3---3---3---3---3---3---3---3---|
B|-----------------------------------------------------------------|
G|---0---0---0---0---0---0---0---0---0---0---0---0---0---0---0---0-|
D|-----------------------------------------------------------------|
A|-----------------------------------------------------------------|
E|-----------------------------------------------------------------|

[Verse 2]
  Jesus, how perfect is your name.....
e|-3---3---3---3---3---3---2---2---0---0---0---0---0---0-----------|
B|---------------------------------------------------------3---3---|
G|---0---0---0---0---0---0---2---2---0---0---0---0---0---0---0---0-|
D|-----------------------------------------------------------------|
A|-----------------------------------------------------------------|
E|-----------------------------------------------------------------|

e|-7---7---7---7---7---7---5---5---7---7---7---7---7---7---5---5---|
B|-----------------------------------------------------------------|
G|---7---7---7---7---7---7---4---4---7---7---7---7---7---7---4---4-|
D|-----------------------------------------------------------------|
A|-----------------------------------------------------------------|
E|-----------------------------------------------------------------|

  Savior what song is worth this grace...
e|-3---3---3---3---3---3---2---2---0---0---0---0---0---0-----------|
B|---------------------------------------------------------3---3---|
G|---0---0---0---0---0---0---2---2---0---0---0---0---0---0---0---0-|
D|-----------------------------------------------------------------|
A|-----------------------------------------------------------------|
E|-----------------------------------------------------------------|

e|-7---7---7---7---7---7---5---5---7---7---7---7---7---7---7---7---|
B|-----------------------------------------------------------------|
G|---7---7---7---7---7---7---4---4---7---7---7---7---7---7---7---7-|
D|-----------------------------------------------------------------|
A|-----------------------------------------------------------------|
E|-----------------------------------------------------------------|

[Pre-Chorus 2]
 Oh oh oh ohhhhh I throw my weakness.... 
e|---------------------------------------------------------------------|
B|-5---5---5---5---5---8---8---8---8---7---7---7---7---3---3---3---3---|
G|---0---0---0---0---0---0---0---0---0---0---0---0---0---0---0---0---0-|
D|---------------------------------------------------------------------|
A|---------------------------------------------------------------------|
E|---------------------------------------------------------------------|
   
(x3)
e|-----------------------------------------------------------------|
B|-5---5---5---5---5---5---5---5---5---5---5---5---5---5---5---5---|
G|---0---0---0---0---0---0---0---0---0---0---0---0---0---0---0---0-|
D|-----------------------------------------------------------------|
A|-----------------------------------------------------------------|
E|-----------------------------------------------------------------|

[Chorus 2]
  Singing holy....
e|-7---7---7---7---7---7---7---7---8---8---8---8---8---7---5---5---|
B|-----------------------------------------------------------------|
G|---7---7---7---7---7---7---7---7---7---7---7---7---7---7---4---4-|
D|-----------------------------------------------------------------|
A|-----------------------------------------------------------------|
E|-----------------------------------------------------------------|

  Holy, God Almighty
e|-3---3---3---3---3---3---3---3---3---3---3---3---3---3---5---5---|
B|-----------------------------------------------------------------|
G|---0---0---0---0---0---0---0---0---0---0---0---0---0---0---4---4-|
D|-----------------------------------------------------------------|
A|-----------------------------------------------------------------|
E|-----------------------------------------------------------------|
  
  Heart broke sound,
e|-7---7---7---7---7---7---7---7---7---7---7---7---5---5---5---5---|
B|-----------------------------------------------------------------|
G|---7---7---7---7---7---7---7---7---7---7---7---7---4---4---4---4-|
D|-----------------------------------------------------------------|
A|-----------------------------------------------------------------|
E|-----------------------------------------------------------------|
  
  Your name....
e|-3---3---3---3---3---3---3---3---3---3---3---3---3---3---0---0---|
B|-----------------------------------------------------------------|
G|---0---0---0---0---0---0---0---0---0---0---0---0---0---0---0---0-|
D|-----------------------------------------------------------------|
A|-----------------------------------------------------------------|
E|-----------------------------------------------------------------|

  Singing holy....
e|-7---7---7---7---7---7---7---7---8---8---8---8---8---7---5---5---|
B|-----------------------------------------------------------------|
G|---7---7---7---7---7---7---7---7---7---7---7---7---7---7---4---4-|
D|-----------------------------------------------------------------|
A|-----------------------------------------------------------------|
E|-----------------------------------------------------------------|

  Holy, God Almighty
e|-3---3---3---3---3---3---3---3---3---3---3---3---3---3---5---5---|
B|-----------------------------------------------------------------|
G|---0---0---0---0---0---0---0---0---0---0---0---0---0---0---4---4-|
D|-----------------------------------------------------------------|
A|-----------------------------------------------------------------|
E|-----------------------------------------------------------------|
  
  Heart broke sound,
e|-7---7---7---7---7---7---7---7---7---7---7---7---5---5---5---5---|
B|-----------------------------------------------------------------|
G|---7---7---7---7---7---7---7---7---7---7---7---7---4---4---4---4-|
D|-----------------------------------------------------------------|
A|-----------------------------------------------------------------|
E|-----------------------------------------------------------------|
  
  Your name....
e|-3---3---3---3---3---3---3---3---3---3---3---3---3---3---3---3---|
B|-----------------------------------------------------------------|
G|---0---0---0---0---0---0---0---0---0---0---0---0---0---0---0---0-|
D|-----------------------------------------------------------------|
A|-----------------------------------------------------------------|
E|-----------------------------------------------------------------|

[Bridge]
  Own the sound forever....
e|-7---7---7---7---7---7---7---7---5---5---5---5---5---5---5---5---|
B|-----------------------------------------------------------------|
G|---7---7---7---7---7---7---7---7---4---4---4---4---4---4---4---4-|
D|-----------------------------------------------------------------|
A|-----------------------------------------------------------------|
E|-----------------------------------------------------------------|
  
  Singing holy is your name....
e|-3---3---3---3---3---3---2---2---0---0---0---0---0---0---0---0---|
B|-----------------------------------------------------------------|
G|---0---0---0---0---0---0---2---2---0---0---0---0---0---0---0---0-|
D|-----------------------------------------------------------------|
A|-----------------------------------------------------------------|
E|-----------------------------------------------------------------|
 (x4)

[Chorus 3]
  You are worthy, Jesus Savior....
e|-7---7---7---7---7---7---7---7---8---8---8---8---8---7---5---5---|
B|-----------------------------------------------------------------|
G|---7---7---7---7---7---7---7---7---7---7---7---7---7---7---4---4-|
D|-----------------------------------------------------------------|
A|-----------------------------------------------------------------|
E|-----------------------------------------------------------------|

  You are worthy, king forever....
e|-3---3---3---3---3---3---3---3---3---3---3---3---3---3---5---5---|
B|-----------------------------------------------------------------|
G|---0---0---0---0---0---0---0---0---0---0---0---0---0---0---4---4-|
D|-----------------------------------------------------------------|
A|-----------------------------------------------------------------|
E|-----------------------------------------------------------------|
  
  Hear my soul cry out,
e|-7---7---7---7---7---7---7---7---7---7---7---7---5---5---5---5---|
B|-----------------------------------------------------------------|
G|---7---7---7---7---7---7---7---7---7---7---7---7---4---4---4---4-|
D|-----------------------------------------------------------------|
A|-----------------------------------------------------------------|
E|-----------------------------------------------------------------|
  
  Your name....
e|-3---3---3---3---3---3---3---3---3---3---3---3---3---3---0---0---|
B|-----------------------------------------------------------------|
G|---0---0---0---0---0---0---0---0---0---0---0---0---0---0---0---0-|
D|-----------------------------------------------------------------|
A|-----------------------------------------------------------------|
E|-----------------------------------------------------------------|

  Singing holy....
e|-7---7---7---7---7---7---7---7---8---8---8---8---8---7---5---5---|
B|-----------------------------------------------------------------|
G|---7---7---7---7---7---7---7---7---7---7---7---7---7---7---4---4-|
D|-----------------------------------------------------------------|
A|-----------------------------------------------------------------|
E|-----------------------------------------------------------------|

  Holy, God Almighty
e|-3---3---3---3---3---3---3---3---3---3---3---3---3---3---5---5---|
B|-----------------------------------------------------------------|
G|---0---0---0---0---0---0---0---0---0---0---0---0---0---0---4---4-|
D|-----------------------------------------------------------------|
A|-----------------------------------------------------------------|
E|-----------------------------------------------------------------|
  
  Heart broke sound,
e|-7---7---7---7---7---7---7---7---7---7---7---7---5---5---5---5---|
B|-----------------------------------------------------------------|
G|---7---7---7---7---7---7---7---7---7---7---7---7---4---4---4---4-|
D|-----------------------------------------------------------------|
A|-----------------------------------------------------------------|
E|-----------------------------------------------------------------|
  
  Your name....
e|-3---3---3---3---3---3---3---3---3---3---3---3---3---3---3---3---|
B|-----------------------------------------------------------------|
G|---0---0---0---0---0---0---0---0---0---0---0---0---0---0---0---0-|
D|-----------------------------------------------------------------|
A|-----------------------------------------------------------------|
E|-----------------------------------------------------------------|

[Instrumental]
e|-0---0---0---0---0---0---0---0---2---2---2---2---2---2---2---2---|
B|-----------------------------------------------------------------|
G|---0---0---0---0---0---0---0---0---2---2---2---2---2---2---2---2-|
D|-----------------------------------------------------------------|
A|-----------------------------------------------------------------|
E|-----------------------------------------------------------------|

e|-3---3---3---3---3---3---3---3---7---7---7---7---7---7---7---7---|
B|-----------------------------------------------------------------|
G|---0---0---0---0---0---0---0---0---7---7---7---7---7---7---7---7-|
D|-----------------------------------------------------------------|
A|-----------------------------------------------------------------|
E|-----------------------------------------------------------------|

e|-7---7---7---7---7---7---7---7---|
B|---------------------------------|
G|---7---7---7---7---7---7---7---7-|
D|---------------------------------|
A|---------------------------------|
E|---------------------------------|
(x2)

[Outro]
  I'm falling, falling to my knees
e|-0---0---0---0---0---0---0---0---2---2---2---2---2---2---2---2---|
B|-----------------------------------------------------------------|
G|---0---0---0---0---0---0---0---0---2---2---2---2---2---2---2---2-|
D|-----------------------------------------------------------------|
A|-----------------------------------------------------------------|
E|-----------------------------------------------------------------|

                                 at Your feet I surrender...
e|-3---3---3---3---3---3---3---3---7---7---7---7---7---7---7---7---|
B|-----------------------------------------------------------------|
G|---0---0---0---0---0---0---0---0---7---7---7---7---7---7---7---7-|
D|-----------------------------------------------------------------|
A|-----------------------------------------------------------------|
E|-----------------------------------------------------------------|

e|-7---7---7---7---7---7---7---7---|
B|---------------------------------|
G|---7---7---7---7---7---7---7---7-|
D|---------------------------------|
A|---------------------------------|
E|---------------------------------|
(x7) (vocals go higher on 5th time through)

   I'm falling, falling to my knees
e|-0---0---0---0---0---0---0---0---2---2---2---2---2---2---2---2---|
B|-----------------------------------------------------------------|
G|---0---0---0---0---0---0---0---0---2---2---2---2---2---2---2---2-|
D|-----------------------------------------------------------------|
A|-----------------------------------------------------------------|
E|-----------------------------------------------------------------|
                           
e|-3---3---3---3---3---3---3---3---7---7---7---7---7---7---7---7---|
B|-----------------------------------------------------------------|
G|---0---0---0---0---0---0---0---0---7---7---7---7---7---7---7---7-|
D|-----------------------------------------------------------------|
A|-----------------------------------------------------------------|
E|-----------------------------------------------------------------|            
Submit corrections


        Heart Like Heaven Falling lessons Hard to play? Try these video lessons and learn fast Heart Like Heaven Falling lessons
        
↑ Back to top | Tablatures and chords for acoustic guitar and electric guitar, ukulele, drums are parodies/interpretations of the original songs. You may use it for private study, scholarship, research or language learning purposes only