» » »

Hillsong United - Good Grace Tabs

Artists:  A B C D E F G H I J K L M N O P Q R S T U V W X Y Z # 

Good Grace Tabs

(ver. 1) Click to play this song!
Hillsong United
 Rating:
4.3/5 (21 vote)

 Good Grace lessons Tabs too difficult? Try these video lessons and learn fast
 
                [First Ooh]

e|-9------5--5-------9------5--5-------------------|
B|-------------------------------------------------|
G|-------------------------------------------------|
D|-------------------------------------------------| x2
A|-9------5----------9------5----------------------|
E|-----------5-----------------5-------------------|

[Mid Chorus 2]
Right after "God is madly in love with you..."
    
e|-------------------------------|
B|---------------5----5----------|
G|---0-----0----0----0-----------| then play D chord 2 bars
D|--6-----7----------------------| 
A|-7-----9-----5-----------------|
E|------------------5------------|

[Second Ooh]

Em Cadd9 G x4 D

[Bridge 2]

e|-------------------------------|
B|---------------5----5----------|
G|---0-----0----0----0-----------| 
D|--6-----7----------------------| x4
A|-7-----9-----5-----------------|
E|------------------5------------|

[Bridge 3]
e|--------------------------------------------|
B|-----5--------0-------5---------------------|
G|---0--0-0---0--0-0--0--0--0---0---4/6/4-0---| 
D|--6-6--6---7-7--7--0-0--0----0--0--------0--| x2
A|-7--------9-------5-------------------------|
E|---------------------------5----------------|

After the 2nd time pick 7 6 0 6 then strum the rest quickly and play Em Cadd9 G D Em Cadd9

[Third Ooh]
G Cadd9 G Cadd9 Em Cadd9 G x2

[Bridge 4]
D Em Cadd9 G x4
For the last part extend Cadd9 part then strum G once
            
Submit corrections


        Good Grace lessons Hard to play? Try these video lessons and learn fast Good Grace lessons
        
↑ Back to top | Tablatures and chords for acoustic guitar and electric guitar, ukulele, drums are parodies/interpretations of the original songs. You may use it for private study, scholarship, research or language learning purposes only