» » »

Hillsong United - God Who Saves Tabs

Artists:  A B C D E F G H I J K L M N O P Q R S T U V W X Y Z # 

God Who Saves Tabs

(ver. 1) Click to play this song!
Hillsong United
 Rating:
4/5 (4 votes)

 God Who Saves  lessons Tabs too difficult? Try these video lessons and learn fast
 
                Intro: Lead Guitar
e|----------------------------------------------------------------------------|
B|-------------------------------------------------------------------12-12-12-|
G|--11-11-11-11-11-11-11-11-13-13-13-13-13-13-13-13-9-9-9-9-9-9-9-9--11-11-11-|
D|--11-11-11-11-11-11-11-11-13-13-13-13-13-13-13-13-9-9-9-9-9-9-9-9--9--9--9--|
A|--9--9--9--9--9--9--9--9--11-11-11-11-11-11-11-11-7-7-7-7-7-7-7-7-----------|
E|----------------------------------------------------------------------------|

e|---------------|
B|12-12-12-12-12-|
G|11-11-11-11-11-|
D|9--9--9--9--9--|
A|---------------|
E|---------------|

Lead Verse
For the first and third verse play the intro chords but play them to your own interpretation.
For verses 2 and 4 play the intro chords but let them ring out until the next chord.

Chorus 1 Lead Guitar

e|---------------------------------------------------------------------------|
B|---------------------------------------------------------------------------|
G|-------------------------------------------------8-8-8-6-6-8-8-------------|
D|-8-8-8-8-8-8-8-8-9-9-9-9-9-9-9-9-6-6-6-6-6-6-6-6---------------------------|
A|---------------------------------------------------------------------------|
E|---------------------------------------------------------------------------|

Turn: The turn is the same as half the intro.

Chorus 2,3,4,5

e|---------------------------------------------------------------------------|
B|-11-11-11-11-11-11-11-11-12-12-12-12-12-12-12-12-12-12-12-12-12-12-12-12---|
G|-11-11-11-11-11-11-11-11-11-11-11-11-11-11-11-11-9--9--9--9--9--9--9--9----|
D|---------------------------------------------------------------------------|
A|---------------------------------------------------------------------------|
E|---------------------------------------------------------------------------|

e|-------------------------|  Repeat as necessary.
B|-12-12-12-12-12-12-12-12-|
G|-11-11-11-11-11-11-11-11-|
D|-9--9--9--9--9--9--9--9--|
A|-------------------------|
E|-------------------------|


Outro is the same as intro.
End on

e--------|
B--------|
G-11-----|
D-11-----|
A-9------|
E--------|            
Submit corrections


        God Who Saves  lessons Hard to play? Try these video lessons and learn fast God Who Saves  lessons
        
↑ Back to top | Tablatures and chords for acoustic guitar and electric guitar, ukulele, drums are parodies/interpretations of the original songs. You may use it for private study, scholarship, research or language learning purposes only