» » »

Hillsong United - Forever Reign Tabs

Artists:  A B C D E F G H I J K L M N O P Q R S T U V W X Y Z # 

Forever Reign Tabs

(ver. 1) Click to play this song!
Hillsong United
 Rating:
4/5 (4 votes)

 Forever Reign lessons Tabs too difficult? Try these video lessons and learn fast
 
                INTRO

e|----------------------------|
B|---7/h/9---7/h/9------------|
G|-------------------9-9-10---|   x2
D|----------------------------|
A|----------------------------|
E|----------------------------|



VERSE 1:

        C
You are good, You are good When there's nothing good in me.
        
        G
You are love, You are love On display for all to see.
        
         C
You are light, You are light When the darkness closes in.
        
         G
You are hope, You are hope You have covered all my sin.



e|--------------------------------|
B|---5---7/h/9---7/h/9------------|
G|-----------------------9-9-10---|   
D|--------------------------------|
A|--------------------------------|
E|--------------------------------|


VERSE 2:

e|---15--------21---15---|
B|--------15-------------|
G|-----------------------|   x4
D|-----------------------|
A|-----------------------|
E|-----------------------|



PRE-CHORUS:

e|---1-1-1----------------1-1-1------15-15-15---|
B|---------5-5--13-13-13--------5-5--13-13-13---|
G|----------------------------------------------|
D|----------------------------------------------|
A|----------------------------------------------|
E|----------------------------------------------|



CHORUS:

e|---12-12-12----------15-15---12-12-12-----------17-17---|
B|------------15-15-15-------------------15-15-15---------|
G|--------------------------------------------------------|   x3
D|--------------------------------------------------------|
A|--------------------------------------------------------|
E|--------------------------------------------------------|


e|--12-12-12--------15-15--12-12-12-----------15--15--15--15--15--15--15---|
B|----------15-15-15----------------15(x5)--13--13--13--13--13--13--13--13-|
G|-------------------------------------------------------------------------|
D|-------------------------------------------------------------------------|
A|-------------------------------------------------------------------------|
E|-------------------------------------------------------------------------|



VERSE 3:

You are more, You are more Than my words will ever say.

You are Lord, You are Lord..


"All creation will proclaim.." (Build)
e|--------------------------------------------------------------------|
B|---13-13-13-13-13-13-13-13-13-13-13-13-13-13-13-13-13-13-13-13-13---|
G|---12-12-12-12-12-12-12-12-12-12-12-12-12-12-12-12-12-12-12-12-12---|
D|---10-10-10-10-10-10-10-10-10-10-10-10-10-10-10-10-10-10-10-10-10---|
A|--------------------------------------------------------------------|
E|--------------------------------------------------------------------|


"You are God, You are God.."
e|---10-10-10-10-10-10-10-10-10-10-10-10-10-10-10-10-10-10-10-10-10---|
B|---12-12-12-12-12-12-12-12-12-12-12-12-12-12-12-12-12-12-12-12-12---|
G|---12-12-12-12-12-12-12-12-12-12-12-12-12-12-12-12-12-12-12-12-12---|
D|--------------------------------------------------------------------|
A|--------------------------------------------------------------------|
E|--------------------------------------------------------------------|



PRE-CHORUS:

e|---1-1-1----------------1-1-1------15-15-15---|
B|---------5-5--13-13-13--------5-5--13-13-13---|
G|----------------------------------------------|
D|----------------------------------------------|
A|----------------------------------------------|
E|----------------------------------------------|



CHORUS:

e|---12-12-12----------15-15---12-12-12-----------17-17---|
B|------------15-15-15-------------------15-15-15---------|
G|--------------------------------------------------------|   x3
D|--------------------------------------------------------|
A|--------------------------------------------------------|
E|--------------------------------------------------------|


e|--12-12-12--------15-15--12-12-12-----------15--15--15--15--15--15--15---|
B|----------15-15-15----------------15(x5)--13--13--13--13--13--13--13--13-|
G|-------------------------------------------------------------------------|
D|-------------------------------------------------------------------------|
A|-------------------------------------------------------------------------|
E|-------------------------------------------------------------------------|


BRIDGE:

My heart will sing...

e|-----13----12----10-----15----13----12---10---|
B|---13----13----8------13----13----13----8-----|
G|----------------------------------------------|
D|----------------------------------------------|
A|----------------------------------------------|
E|----------------------------------------------|

(Build)
e|----------------------------------------------------------------------|
B|--5-5-5-5-5-5-5-5--6-6-6-6-6-6-6-6--5-5-5-5-5-5-5-5--3-3-3-3-3-3-3-3--|
G|--5-5-5-5-5-5-5-5--5-5-5-5-5-5-5-5--5-5-5-5-5-5-5-5--5-5-5-5-5-5-5-5--| x2
D|----------------------------------------------------------------------|
A|----------------------------------------------------------------------|
E|----------------------------------------------------------------------|


CHORUS 2:

e|---12-12-12----------15-15---12-12-12-----------17-17---|
B|------------15-15-15-------------------15-15-15---------|
G|--------------------------------------------------------|   x4
D|--------------------------------------------------------|
A|--------------------------------------------------------|
E|--------------------------------------------------------|
  

   C                       G                         Am
& Oh, Im running to Your arms, I'm running to Your arms
                    G                    F
The riches of Your love Will always be enough
           Am        G      F                   Am       G     F
Nothing compares to Your embrace. Light of the world, forever reign


Am
   My heart will sing...

e|-----13----12----10-----15----13----12---10---|
B|---13----13----8------13----13----13----8-----|
G|----------------------------------------------|
D|----------------------------------------------|
A|----------------------------------------------|
E|----------------------------------------------|

End on Am
            
Submit corrections


        Forever Reign lessons Hard to play? Try these video lessons and learn fast Forever Reign lessons
        
↑ Back to top | Tablatures and chords for acoustic guitar and electric guitar, ukulele, drums are parodies/interpretations of the original songs. You may use it for private study, scholarship, research or language learning purposes only