» » »

Hillsong United - Broken Vessels Amazing Grace Tabs

Artists:  A B C D E F G H I J K L M N O P Q R S T U V W X Y Z # 

Broken Vessels Amazing Grace Tabs

(ver. 1) Click to play this song!
Hillsong United
 Rating:
3.2/5 (29 votes)

 Broken Vessels Amazing Grace  lessons Tabs too difficult? Try these video lessons and learn fast
 
                Intro: 

 Em            G              Em             G
 ---------------------------------------------
 -8--------------------------------------------
 -9--7---------4------4--------4------4------4-
 -9----10-9----5--5-7---7-5----5--5-7---7-5--5-
 -7----------------------------7-------------5-
 ----------------------------------------------

 Em            G              Em             G
 ----------------------------------------------
 -8--------------------------------------------
 -9--7---------4------4-7-4----4------4------4-
 -9----10-9----5--5-7----------5--5-7---7-5--5-
 -7----------------------------7-------------5-
 ----------------------------------------------

Verse:
 
 Em   G
 -------
 -8-----
 -9---4- [x3] [Pluck these chords]
 -9-----
 -7---2-
 -----3-

I've been set free..

 D  Em   D
-----------
-7---8---7-
-7---9---7- [Continue to pluck]
-7---9---7-
-5---7---5-
-----------

Pre-Chorus:

  C  D   Em   C
----------------
----------------
--9--11--12---9-
-10--12--14--10- [x2] [Again, pluck chords]
-10--12--14--10-
--8--10--12---8-

Chorus:

 G   D   G    C
----------------
-12--10--12---8-
-12--11--12---9- [x2] [Strum downwards only (with thumb), strumming each chords 8 times]
-12--12--12--10-
-10--12--10--10-
----------------

Back to 2nd half of intro and play through until end of chorus, then:

Riff/Instrumental:

-------------------------      -------------------------                                    
----------------12-------      -13-12-------13-12-------                                    
-12----12----14----14-12- [x3] -------14-12-------14-12- at the end of the riff segment 
----12----12-------------      -------------------------                                    
-------------------------      -------------------------                      
-------------------------      -------------------------

Repeat entire riff/instrumental multiple times until it goes back to the chorus, then play:

Chorus 2:

 G   D  Em   C   G   D  Em    C
-------------8---7------------8-
-8---7---8---8---8---7---8----8-
-7---7---9-------7---7---9----9-
-5---5---9-------9---7---9---10-
-----5---7---7-----------7------
-------------8------------------

 G   D  Em   C   G   D  Em            C
-------------8---7--------------8-----8-----8---
-8---7---8---8---8---7---8---/8---8-----8-----8-
-7---7---9-------7---7---9----------9-----9-----
-5---5---9-------9---7---9----------------------
-----5---7---7-----------7----------------------
-------------8----------------------------------

Finally end song on the final chord:

 G
----
-12-
-12-
-12-
-10-
----

            
Submit corrections


        Broken Vessels Amazing Grace  lessons Hard to play? Try these video lessons and learn fast Broken Vessels Amazing Grace  lessons
        
↑ Back to top | Tablatures and chords for acoustic guitar and electric guitar, ukulele, drums are parodies/interpretations of the original songs. You may use it for private study, scholarship, research or language learning purposes only