» » »

Hillsong United - Bones Tabs

Artists:  A B C D E F G H I J K L M N O P Q R S T U V W X Y Z # 

Bones Tabs

(ver. 1) Click to play this song!
Hillsong United
 Rating:
4.3/5 (29 votes)

 Bones lessons Tabs too difficult? Try these video lessons and learn fast
 
                [Intro]

e|----------------------------1-----------------------------1----------------|   (X2)
B|--------------1---------1-----------1-------1---------1--------------------|
G|----------2-------0h2-------------------2-------0h2------------------------|
D|----3----------------------------------------------------------------------|
A|---------------------------------------------------------------------------|
E|---------------------------------------------------------------------------|

e|----------------------------1-----------------------------1----------------|   (X2)
B|--------------1---------1-----------1-------1---------1--------------------|
G|----------2-------0h2-------------------2-------0h2------------------------|
D|----0----------------------------------------------------------------------|
A|---------------------------------------------------------------------------|
E|---------------------------------------------------------------------------|

e|----------------------------5-----------------------------5----------------|   (X2)
B|--------------6---------6-----------6-------6---------6--------------------|
G|----------7-------5h7-------------------7-------5h7------------------------|
D|----8----------------------------------------------------------------------|
A|---------------------------------------------------------------------------|
E|---------------------------------------------------------------------------|

e|----------------------------1-----------------------------1----------------|   (X2)
B|--------------1---------1-----------1-------1---------1--------------------|
G|----------2-------0h2-------------------2-------0h2------------------------|
D|----3----------------------------------------------------------------------|
A|---------------------------------------------------------------------------|
E|---------------------------------------------------------------------------|            
Submit corrections


        Bones lessons Hard to play? Try these video lessons and learn fast Bones lessons
        
↑ Back to top | Tablatures and chords for acoustic guitar and electric guitar, ukulele, drums are parodies/interpretations of the original songs. You may use it for private study, scholarship, research or language learning purposes only