Home » H » Hilera »

Hilera - Pot Of Gold Tabs

Artists:  A B C D E F G H I J K L M N O P Q R S T U V W X Y Z # 

Pot Of Gold Tabs

(ver. 3) Click to play this song!
Hilera

~ - let it ring

Tuning:eBGDAE

Intro

G|----------------------------            -----------|
D|----------------------------            -----------|
A|-6-6-6-6--------------------  4x Then.. -----------|
E|---------4-4-4-4-/-6-6-6-6--            -4~-4~-6~--|
   . . . . . . . .   . . . .

Verse 1

G|-----------------------------------------------------|
D|-----------------------------------------------------|
A|-6-6-6-6-6-6-6-6-x-----------------------------------| 3x 
E|-------------------4-4-4-4-4-4-4-4-/-6-6-6-6-6-6-6-6-|
   . . . . . . . .   . . . . . . . .   . . . . . . . .

Cont'd

G|-----------------------|
D|-----------------------|
A|-6-6-6-6-6-6-6-6-------|
E|-----------------4~-6--|
   . . . . . . . .    
 
Chorus

G|-----------------------------------|
D|-----------------------------------| 
A|-3~-333-x----------6~-666-x-1~-111-| 3x
E|----------4~-444-x-----------------|
      ...      ...      ...      ...

Cont'd

G|---------------------------|
D|---------------------------|
A|-3~-333-x----------6~-666--|
E|----------4~-444-x---------|
      ...      ...      ...

Verse 2

G|-----------------------------------------------------|
D|-----------------------------------------------------|
A|-6-6-6-6-6-6-6-6-x-----------------------------------| 3x 
E|-------------------4-4-4-4-4-4-4-4-/-6-6-6-6-6-6-6-6-|
   . . . . . . . .   . . . . . . . .   . . . . . . . .

Cont'd

G|-----------------------|
D|-----------------------|
A|-6-6-6-6-6-6-6-6-------|
E|-----------------4~-6--|
   . . . . . . . .    

Verse 3

G|-----------------------------------------------------|
D|-----------------------------------------------------|
A|-6-6-6-6-6-6-6-6-x-----------------------------------| 3x 
E|-------------------4-4-4-4-4-4-4-4-/-6-6-6-6-6-6-6-6-|
   . . . . . . . .   . . . . . . . .   . . . . . . . .

Cont'd

G|-----------------------|
D|-----------------------|
A|-6-6-6-6-6-6-6-6-------|
E|-----------------4~-6--|
   . . . . . . . .    

Verse 1 again..

G|-----------------------------------------------------|
D|-----------------------------------------------------|
A|-6-6-6-6-6-6-6-6-x-----------------------------------| 3x 
E|-------------------4-4-4-4-4-4-4-4-/-6-6-6-6-6-6-6-6-|
   . . . . . . . .   . . . . . . . .   . . . . . . . .

Cont'd

G|-----------------------|
D|-----------------------|
A|-6-6-6-6-6-6-6-6-------|
E|-----------------4~-6--|
   . . . . . . . .    

Chorus

G|-----------------------------------|
D|-----------------------------------| 
A|-3~-333-x----------6~-666-x-1~-111-| 3x
E|----------4~-444-x-----------------|
      ...      ...      ...      ...

Cont'd

G|---------------------------|
D|---------------------------|
A|-3~-333-x----------6~-666--|
E|----------4~-444-x---------|
      ...      ...      ...

Bridge

G|-------------------------------      ---------|
D|-------------------------------      ---------|
A|------------------------------- Then ---------|
E|-8-6-4-6-8-6-4-x-8-6-4-6-8~-6~-      -6-8~----|
   . . . . . . .   . . . .      
        
Then Chorus:Bass Solo (techno sounding)
G|-----------------------------------------|
D|-----------------------------------------|
A|-66666666-----------66666666-------------|
E|----------4444-6666----------4444-66666--|

Chorus

G|-----------------------------------|
D|-----------------------------------| 
A|-3~-333-x----------6~-666-x-1~-111-| 3x
E|----------4~-444-x-----------------|
      ...      ...      ...      ...

Cont'd

G|---------------------------|
D|---------------------------|
A|-3~-333-x----------6~-666--|
E|----------4~-444-x---------|
      ...      ...      ...

Intro

G|----------------------------            -----------|
D|----------------------------            -----------|
A|-6-6-6-6--------------------  4x Then.. -----------|
E|---------4-4-4-4-/-6-6-6-6--            -4~-4~-6~--|
   . . . . . . . .   . . . .
            
Submit corrections

↑ Back to top | Tablatures and chords for acoustic guitar and electric guitar, ukulele, drums are parodies/interpretations of the original songs. You may use it for private study, scholarship, research or language learning purposes only