Home » H » Highly Suspect »

Highly Suspect - Lydia Tabs

Artists:  A B C D E F G H I J K L M N O P Q R S T U V W X Y Z # 

Lydia Tabs

(ver. 2) Click to play this song!
Highly Suspect
[Optional Intro]
 
e|--------------------------|--------------------------|
B|--------------------------|--------------------------|
G|--------------------------|--------------------------|
D|-3-3-3-3-3/5--5-5-5-5-5/6-|-6-6-6-6-6/8--8-8-8-8-8\6-|
A|-x-x-x-x-x-x--x-x-x-x-x-x-|-x-x-x-x-x-x--x-x-x-x-x-x-|
E|-1-1-1-1-1/3--3-3-3-3-3/4-|-4-4-4-4-4/6--6-6-6-6-6\4-|
 
e|--------------------------|--------------------------|
B|--------------------------|--------------------------|
G|--------------------------|--------------------------|
D|-6-6-6-6-6/5--5-5-5-5-5\3-|-3-3-3-3-3\2--2--2--2--2--|
A|-x-x-x-x-x-x--x-x-x-x-x-x-|-x-x-x-x-x----x--x--x--x--|
E|-4-4-4-4-4/3--3-3-3-3-3\1-|-1-1-1-1-1----0--0--0--0--|
 
e|--------------------------|
B|--------------------------|
G|--------------------------|
D|-2------------------------|
A|-x------------------------|
E|-0------------------------|
 
[Intro]
 
e|--------------------------|--------------------------|
B|--------------------------|--------------------------|
G|--------------------------|--------------------------|
D|-3-----3-----3-----3------|-2-----2-----2-----2------|
A|-x-----x-----x-----x------|-x-----x-----x-----x------|
E|-1-----1-----1-----1------|-3-----3-----3-----3------|
 
e|--------------------------|--------------------------|
B|--------------------------|--------------------------|
G|--------------------------|--------------------------|
D|-3-----3-----3-----3------|-3-----3-----3-----3------|
A|-x-----x-----x-----x------|-x-----x-----x-----x------|
E|-4-----4-----4-----4------|-4-----4-----4-----4------|
 
e|--------------------------|--------------------------|
B|--------------------------|--------------------------|
G|--------------------------|--------------------------|
D|-8-----8-----8-----8\6----|-6-----6-----6-----6\5----|
A|-x-----x-----x-----x-x----|-x-----x-----x-----x-x----|
E|-6-----6-----6-----6\4----|-4-----4-----4-----4\3----|
 
e|--------------------------|--------------------------|
B|--------------------------|--------------------------|
G|--------------------------|--------------------------|
D|-5------------------------|-(5)----------------------|
A|-x------------------------|-(x)----------------------|
E|-3------------------------|-(3)----------------------|
 
[Verse 1]
 
e|--------------------------|--------------------------|
B|--------------------------|--------------------------|
G|--------------------------|--------------------------|
D|-3-----3-----3-----3------|-2-----2-----2-----2------|
A|-x-----x-----x-----x------|-x-----x-----x-----x------|
E|-1-----1-----1-----1------|-3-----3-----3-----3------|
 
e|--------------------------|--------------------------|
B|--------------------------|--------------------------|
G|--------------------------|--------------------------|
D|-3-----3-----3-----3------|-3-----3-----3-----3------|
A|-x-----x-----x-----x------|-x-----x-----x-----x------|
E|-4-----4-----4-----4------|-4-----4-----4-----4------|
 
e|--------------------------|--------------------------|
B|--------------------------|--------------------------|
G|--------------------------|--------------------------|
D|-8-----8-----8-----8\6----|-6-----6-----6-----6\5----|
A|-x-----x-----x-----x-x----|-x-----x-----x-----x-x----|
E|-6-----6-----6-----6\4----|-4-----4-----4-----4\3----|
 
e|--------------------------|--------------------------|
B|--------------------------|--------------------------|
G|--------------------------|--------------------------|
D|-5-----5-----5-----5------|-5-----5-----5-----5------|
A|-x-----x-----x-----x------|-x-----x-----x-----x------|
E|-3-----3-----3-----3------|-3-----3-----3-----3------|
 
e|--------------------------|--------------------------|
B|--------------------------|--------------------------|
G|--------------------------|--------------------------|
D|-3-----3-----3-----3------|-2-----2-----2-----2------|
A|-x-----x-----x-----x------|-x-----x-----x-----x------|
E|-1-----1-----1-----1------|-3-----3-----3-----3------|
 
e|--------------------------|--------------------------|
B|--------------------------|--------------------------|
G|--------------------------|--------------------------|
D|-3-----3-----3-----3------|-3-----3-----3-----3------|
A|-x-----x-----x-----x------|-x-----x-----x-----x------|
E|-4-----4-----4-----4------|-4-----4-----4-----4------|
 
e|--------------------------|--------------------------|
B|--------------------------|--------------------------|
G|--------------------------|--------------------------|
D|-8-----8-----8-----8\6----|-6-----6-----6-----6\5----|
A|-x-----x-----x-----x-x----|-x-----x-----x-----x-x----|
E|-6-----6-----6-----6\4----|-4-----4-----4-----4\3----|
 
e|--------------------------|---------x-x--x-----------|
B|--------------------------|---------x-x--x-----------|
G|--------------------------|---------x-x--x-----------|
D|-5--5--5--5--5--5--5--5---|-5-------x-x--x-----------|
A|-x--x--x--x--x--x--x--x---|-x-------x-x--x-----------|
E|-3--3--3--3--3--3--3--3---|-3-------x-x--x-----------|
 
[Chorus 1]
 
 
e|--------------------------|--------------------------|
B|--------------------------|--------------------------|
G|--------------------------|--------------------------|
D|-11------11--11-----11\---|-8----8--8---8------------|
A|-11------11--11-----11\---|-8----8--8---8------------|
E|-9-------9---9------9\----|-6----6--6---6------------|
 
e|----------x-x-------------|----------x-x-------------|
B|----------x-x-------------|----------x-x-------------|
G|----------x-x--10---10----|----------x-x--8----8-----|
D|-3--3--3--x-x--10---10----|-3--3--3--x-x--8----8-----|
A|-3--3--3--x-x--8----8-----|-3--3--3--x-x--6----6-----|
E|-1--1--1--x-x-------------|-1--1--1--x-x-------------|
 
e|--------------------------|--------------------------|
B|--------------------------|--------------------------|
G|--------------------------|--------------------------|
D|-11---11---11---11--11----|----8--8--8--8----8-------|
A|-11---11---11---11--11----|----8--8--8--8----8-------|
E|-9----9----9----9---9-----|----6--6--6--6----6-------|
 
[Verse 2]
 
e|--------------------------|--------------------------|
B|--------------------------|--------------------------|
G|--------------------------|--------------------------|
D|-3-----3-----3-----3------|-2-----2-----2-----2------|
A|-x-----x-----x-----x------|-x-----x-----x-----x------|
E|-1-----1-----1-----1------|-3-----3-----3-----3------|
 
e|--------------------------|--------------------------|
B|--------------------------|--------------------------|
G|--------------------------|--------------------------|
D|-3-----3-----3-----3------|-3-----3-----3-----3------|
A|-x-----x-----x-----x------|-x-----x-----x-----x------|
E|-4-----4-----4-----4------|-4-----4-----4-----4------|
 
e|--------------------------|--------------------------|
B|--------------------------|--------------------------|
G|--------------------------|--------------------------|
D|-8-----8-----8-----8\6----|-6-----6-----6-----6\5----|
A|-x-----x-----x-----x-x----|-x-----x-----x-----x-x----|
E|-6-----6-----6-----6\4----|-4-----4-----4-----4\3----|
 
e|--------------------------|--------------------------|
B|--------------------------|--------------------------|
G|--------------------------|--------------------------|
D|-5-----5-----5-----5------|-5-----5-----5-----5------|
A|-x-----x-----x-----x------|-x-----x-----x-----x------|
E|-3-----3-----3-----3------|-3-----3-----3-----3------|
 
e|--------x--x--x----x------|--------x--x--x----x------|
B|--------x--x--x----x------|--------x--x--x----x------|
G|--------x--x--x----x------|--------x--x--x----x------|
D|-3--3---x--x--x----x------|-2--2---x--x--x----x------|
A|-x--x---x--x--x----x------|-x--x---x--x--x----x------|
E|-1--1---x--x--x----x------|-3--3---x--x--x----x------|
 
e|--------x--x--x----x------|-x--x--x-x-x-x-x----x-----|
B|--------x--x--x----x------|-x--x--x-x-x-x-x----x-----|
G|--------x--x--x----x------|-x--x--x-x-x-x-x----x-----|
D|-3--3---x--x--x----x------|-x--x--x-x-x-x-x----x-----|
A|-x--x---x--x--x----x------|-x--x--x-x-x-x-x----x-----|
E|-4--4---x--x--x----x------|-x--x--x-x-x-x-x----x-----|
 
e|--------------------------|--------------------------|
B|--------------------------|--------------------------|
G|--------------------------|--------------------------|
D|-8-----8-----8-----8\6----|-6-----6-----6-----6\5----|
A|-x-----x-----x-----x-x----|-x-----x-----x-----x-x----|
E|-6-----6-----6-----6\4----|-4-----4-----4-----4\3----|
 
e|--------------------------|--------------------------|
B|--------------------------|--------------------------|
G|--------------------------|--------------------------|
D|-5--5--5--5--5--5--5--5---|-5------------------------|
A|-x--x--x--x--x--x--x--x---|-x------------------------|
E|-3--3--3--3--3--3--3--3---|-3------------------------|
 
[Chorus 2]
 
e|--------------------------|--------------------------|
B|--------------------------|--------------------------|
G|--------------------------|--------------------------|
D|-11------11--11-----11\---|-8----8--8---8------------|
A|-11------11--11-----11\---|-8----8--8---8------------|
E|-9-------9---9------9\----|-6----6--6---6------------|
 
e|----------x-x-------------|----------x-x-------------|
B|----------x-x-------------|----------x-x-------------|
G|----------x-x--10---10----|----------x-x--8----8-----|
D|-3--3--3--x-x--10---10----|-3--3--3--x-x--8----8-----|
A|-3--3--3--x-x--8----8-----|-3--3--3--x-x--6----6-----|
E|-1--1--1--x-x-------------|-1--1--1--x-x-------------|
 
e|--------------------------|--------------------------|
B|--------------------------|--------------------------|
G|--------------------------|--------------------------|
D|-11---11---11---11--11----|----8--8--8--8----8-------|
A|-11---11---11---11--11----|----8--8--8--8----8-------|
E|-9----9----9----9---9-----|----6--6--6--6----6-------|
 
e|----------x-x-------------|----------x-x-------------|
B|----------x-x-------------|----------x-x-------------|
G|----------x-x--10---10----|----------x-x--8----8-----|
D|-3--3--3--x-x--10---10----|-3--3--3--x-x--8----8-----|
A|-3--3--3--x-x--8----8-----|-3--3--3--x-x--6----6-----|
E|-1--1--1--x-x-------------|-1--1--1--x-x-------------|
 
e|--------------------------|--------------------------|
B|--------------------------|--------------------------|
G|--------------------------|--------------------------|
D|-11---11---11---11--11----|----8--8--8--8----8-------|
A|-11---11---11---11--11----|----8--8--8--8----8-------|
E|-9----9----9----9---9-----|----6--6--6--6----6-------|
 
e|---------x-x----------x-x-|---------x-x----------x-x-|
B|---------x-x----------x-x-|---------x-x----------x-x-|
G|---------x-x----------x-x-|---------x-x----------x-x-|
D|-3----3--x-x--5----5--x-x-|-6----6--x-x--8----8--x-x-|
A|-x----x--x-x--x----x--x-x-|-x----x--x-x--x----x--x-x-|
E|-1----1--x-x--3----3--x-x-|-4----4--x-x--6----6--x-x-|
 
e|--------------------------|--------------------------|
B|--------------------------|--------------------------|
G|--------------------------|--------------------------|
D|-11---11---11---11--11----|-8--8--8--8--8----8-------|
A|-11---11---11---11--11----|-8--8--8--8--8----8-------|
E|-9----9----9----9---9-----|-6--6--6--6--6----6-------|
 
e|---------x-x----------x-x-|---------x-x--------------|
B|---------x-x----------x-x-|---------x-x--------------|
G|---------x-x----------x-x-|---------x-x--------------|
D|-3----3--x-x--5----5--x-x-|-6----6--x-x--8-----------|
A|-x----x--x-x--x----x--x-x-|-x----x--x-x--x-----------|
E|-1----1--x-x--3----3--x-x-|-4----4--x-x--6-----------|
 
[Bridge]
 
e|--------------------------|--------------------------|
B|--------------------------|--------------------------|
G|--------------------------|--------------------------|
D|-3------------------------|-2------------------------|
A|-x------------------------|-x------------------------|
E|-1------------------------|-3------------------------|
 
e|--------------------------|--------------------------|
B|--------------------------|--------------------------|
G|--------------------------|--------------------------|
D|-3------------------------|-(3)----------------------|
A|-x------------------------|-(x)----------------------|
E|-4------------------------|-(4)----------------------|
 
e|--------------------------|--------------------------|
B|--------------------------|--------------------------|
G|--------------------------|--------------------------|
D|-8------------------------|-6------------------------|
A|-x------------------------|-x------------------------|
E|-6------------------------|-4------------------------|
 
e|--------------------------|--------------------------|
B|--------------------------|--------------------------|
G|--------------------------|--------------------------|
D|-5------------------------|-(5)----------------------|
A|-x------------------------|-(x)----------------------|
E|-3------------------------|-(3)----------------------|
 
e|--------------------------|--------------------------|
B|--------------------------|--------------------------|
G|--------------------------|--------------------------|
D|-3-----3-----3-----3------|-2-----2-----2-----2------|
A|-x-----x-----x-----x------|-x-----x-----x-----x------|
E|-1-----1-----1-----1------|-3-----3-----3-----3------|
 
e|--------------------------|--------------------------|
B|--------------------------|--------------------------|
G|--------------------------|--------------------------|
D|-3-----3-----3-----3------|-3-----3-----3-----3------|
A|-x-----x-----x-----x------|-x-----x-----x-----x------|
E|-4-----4-----4-----4------|-4-----4-----4-----4------|
 
e|--------------------------|--------------------------|
B|--------------------------|--------------------------|
G|--------------------------|--------------------------|
D|-8-----8-----8-----8\6----|-6-----6-----6-----6\5----|
A|-x-----x-----x-----x-x----|-x-----x-----x-----x-x----|
E|-6-----6-----6-----6\4----|-4-----4-----4-----4\3----|
 
e|--------------------------|--------------------------|
B|--------------------------|--------------------------|
G|--------------------------|--------------------------|
D|-5--5--5--5--5--5--5--5---|-5------------------------|
A|-x--x--x--x--x--x--x--x---|-x------------------------|
E|-3--3--3--3--3--3--3--3---|-3------------------------|
 
[Chorus 3]
 
e|--------------------------|--------------------------|
B|--------------------------|--------------------------|
G|--------------------------|--------------------------|
D|-11--------11----11--11---|----8--8--8--8------------|
A|-11--------11----11--11---|----8--8--8--8------------|
E|-9---------9-----9---9----|----6--6--6--6------------|
 
e|----------x-x-------------|----------x-x-------------|
B|----------x-x-------------|----------x-x-------------|
G|----------x-x--10---10----|----------x-x--8----8-----|
D|-3--3--3--x-x--10---10----|-3--3--3--x-x--8----8-----|
A|-3--3--3--x-x--8----8-----|-3--3--3--x-x--6----6-----|
E|-1--1--1--x-x-------------|-1--1--1--x-x-------------|
 
e|--------------------------|--------------------------|
B|--------------------------|--------------------------|
G|--------------------------|--------------------------|
D|-11-11-11-11-11-11-11-11--|----8--8--8--8--8--8--8---|
A|-11-11-11-11-11-11-11-11--|----8--8--8--8--8--8--8---|
E|-9--9--9--9--9--9--9--9---|----6--6--6--6--6--6--6---|
 
e|----------x-x-------------|----------x-x-------------|
B|----------x-x-------------|----------x-x-------------|
G|----------x-x--10---10----|----------x-x--8----8-----|
D|-3--3--3--x-x--10---10----|-3--3--3--x-x--8----8-----|
A|-3--3--3--x-x--8----8-----|-3--3--3--x-x--6----6-----|
E|-1--1--1--x-x-------------|-1--1--1--x-x-------------|
 
e|--------------------------|--------------------------|
B|--------------------------|--------------------------|
G|--------------------------|--------------------------|
D|-11-11-11-11-11-11-11-11--|--8--8--8--8--8--8--8--8--|
A|-11-11-11-11-11-11-11-11--|--8--8--8--8--8--8--8--8--|
E|-9--9--9--9--9--9--9--9---|--6--6--6--6--6--6--6--6--|
 
e|---------x-x----------x-x-|---------x-x----------x-x-|
B|---------x-x----------x-x-|---------x-x----------x-x-|
G|---------x-x----------x-x-|---------x-x----------x-x-|
D|-3----3--x-x--5----5--x-x-|-6----6--x-x--8----8--x-x-|
A|-x----x--x-x--x----x--x-x-|-x----x--x-x--x----x--x-x-|
E|-1----1--x-x--3----3--x-x-|-4----4--x-x--6----6--x-x-|
 
e|--------------------------|--------------------------|
B|--------------------------|--------------------------|
G|--------------------------|--------------------------|
D|-11----11----11----11-11--|-----8--8--8--8--8--8--8--|
A|-11----11----11----11-11--|-----8--8--8--8--8--8--8--|
E|-9-----9-----9-----9--9---|-----6--6--6--6--6--6--6--|
 
e|--------------------------|--------------------------|
B|--------------------------|--------------------------|
G|--------------------------|--------------------------|
D|-3--3--3--3--5--5--5--5---|-6--6--6--6--8--8--8--8---|
A|-x--x--x--x--x--x--x--x---|-x--x--x--x--x--x--x--x---|
E|-1--1--1--1--3--3--3--3---|-4--4--4--4--6--6--6--6---|
 
e|--------------------------|--------------------------|
B|--------------------------|--------------------------|
G|--------------------------|--------------------------|
D|-11----11----11----11-11--|-----8--8--8--8--8--8--8--|
A|-11----11----11----11-11--|-----8--8--8--8--8--8--8--|
E|-9-----9-----9-----9--9---|-----6--6--6--6--6--6--6--|
 
e|--------------------------|--------------------------|
B|--------------------------|--------------------------|
G|--------------------------|--------------------------|
D|-3--3--3--3--5--5--5--5---|-6--6--6--6--8--8--8--8---|
A|-x--x--x--x--x--x--x--x---|-x--x--x--x--x--x--x--x---|
E|-1--1--1--1--3--3--3--3---|-4--4--4--4--6--6--6--6---|
 
e|--------------------------|--------------------------|
B|--------------------------|--------------------------|
G|--------------------------|--------------------------|
D|-11--------11----11--11---|----8--8--8--8--8--8--8---|
A|-11--------11----11--11---|----8--8--8--8--8--8--8---|
E|-9---------9-----9---9----|----6--6--6--6--6--6--6---|
 
e|---------x-x----------x-x-|---------x-x----------x-x-|
B|---------x-x----------x-x-|---------x-x----------x-x-|
G|---------x-x----------x-x-|---------x-x----------x-x-|
D|-3----3--x-x--5----5--x-x-|-6----6--x-x--8----8--x-x-|
A|-x----x--x-x--x----x--x-x-|-x----x--x-x--x----x--x-x-|
E|-1----1--x-x--3----3--x-x-|-4----4--x-x--6----6--x-x-|
 
e|--------------------------|--------------------------|
B|--------------------------|--------------------------|
G|--------------------------|--------------------------|
D|-11--------11----11--11---|----8--8--8--8--8--8--8---|
A|-11--------11----11--11---|----8--8--8--8--8--8--8---|
E|-9---------9-----9---9----|----6--6--6--6--6--6--6---|
 
e|---------x-x----------x-x-|---------x-x----------x-x-|
B|---------x-x----------x-x-|---------x-x----------x-x-|
G|---------x-x----------x-x-|---------x-x----------x-x-|
D|-3----3--x-x--5----5--x-x-|-6----6--x-x--8----8--x-x-|
A|-x----x--x-x--x----x--x-x-|-x----x--x-x--x----x--x-x-|
E|-1----1--x-x--3----3--x-x-|-4----4--x-x--6----6--x-x-|
 
[Outro]
 
e|--------------------------|--------------------------|
B|--------------------------|--------------------------|
G|--------------------------|--------------------------|
D|-11-----------------------|-8------------------------|
A|-11-----------------------|-8------------------------|
E|-9------------------------|-6------------------------|
 
e|--------------------------|--------------------------|
B|--------------------------|--------------------------|
G|--------------------------|--------------------------|
D|-6--6--6--6--6--6--6--6---|-6--6--5--5--5--5--5--5---|
A|-x--x--x--x--x--x--x--x---|-x--x--x--x--x--x--x--x---|
E|-4--4--4--4--4--4--4--4---|-4--4--3--3--3--3--3--3---|
 
e|--------------------------|--------------------------|
B|--------------------------|--------------------------|
G|--------------------------|--------------------------|
D|-6--6--6--6--6--6--6--6---|-6--6--5--5--5--5--5--5---|
A|-x--x--x--x--x--x--x--x---|-x--x--x--x--x--x--x--x---|
E|-4--4--4--4--4--4--4--4---|-4--4--3--3--3--3--3--3---|
 
e|--------------------------|--------------------------|
B|--------------------------|--------------------------|
G|--------------------------|--------------------------|
D|-5--5--5--5--4--4--4--4---|-4--4--4--4--4--4--4------|
A|-x--x--x--x--x--x--x--x---|-x--x--x--x--x--x--x------|
E|-3--3--3--3--2--2--2--2---|-2--2--2--2--2--2--2------|
 
e|--------------------------|--------------------------|
B|--------------------------|--------------------------|
G|--------------------------|--------------------------|
D|-3------------------------|-(3)----------------------|
A|-x------------------------|-(x)----------------------|
E|-1------------------------|-(1)----------------------|
            
Submit corrections

↑ Back to top | Tablatures and chords for acoustic guitar and electric guitar, ukulele, drums are parodies/interpretations of the original songs. You may use it for private study, scholarship, research or language learning purposes only