Home » H » High And Mighty Color »

High And Mighty Color - Dive Into Yourself Tabs

Artists:  A B C D E F G H I J K L M N O P Q R S T U V W X Y Z # 

Dive Into Yourself Tabs

(ver. 1) Click to play this song!
High And Mighty Color
***********DIVE*INTO*YOURSELF***************
******HIGH***AND***MIGHTY***COLOR***********


Hi to all High And Mighty Color Fans!!!
Hope u Like it...!
Not Sure in the Chorus....
For Comments/Suggestion: 09065011374

TUNING : eBGDAE

LEGEND:
/ - SLIDE
* - PLAM MUTE

INTRO

--------------------------------------------     -------------|
--------------------------------------------     -------------|
--------------------------------------------     -------------|    REPEAT INTRO 2X
-5-5-5-5--5-5-5--5-3----5-5-5-5--5-5-5--5-3- 2X  ---5-5-5-5-5-|
-5-5-5-5--5-5-5--5-3----5-5-5-5--5-5-5--5-3-     ---5-5-5-5-5-|
-3-3-3-3--3-3-3--3-1----3-3-3-3--3-3-3--3-1-     ---3-3-3-3-3-|
                                                        * * *


VERSE
-------------------------------------------------|
-------------------------------------------------|
-5-5-5-5-5-5-5-5-5-5-5-5-4-4-4-4-4-4-4-4-4-4-4-4-|
-5-5-5-5-5-5-5-5-5-5-5-5-4-4-4-4-4-4-4-4-4-4-4-4-|
-3-3-3-3-3-3-3-3-3-3-3-3-2-2-2-2-2-2-2-2-2-2-2-2-|
-------------------------------------------------|
 * * * * * * * * * * * * * * * * * * * * * * * *
                                                      REPEAT VERSE 2X
--------------------------------------------------|
--------------------------------------------------|
--------------------------------------------------|
-7-7-7-7-7-7-7-7-7-7-7-7-3-3-3-3-3-3-5-5-5-5-5-5--|
-7-7-7-7-7-7-7-7-7-7-7-7-3-3-3-3-3-3-5-5-5-5-5-5--|
-5-5-5-5-5-5-5-5-5-5-5-5-1-1-1-1-1-1-3-3-3-3-3-3--|
 * * * * * * * * * * * * * * * * * * * * *   *


PRE-CHORUS
---------------------------------------------------------|
---------------------------------------------------------|
----------------------------------------7----------------|
-7--7-7--7-7--5--5-5--5-5--4--4-4--4-4--7--2-2-----------|
-7--7-7--7-7--5--5-5--5-5--4--4-4--4-4--5--2-2-----------|
-5--5-5--5-5--3--3-3--3-3--2--2-2--2-2-----0-0-----------|

---------------------------------------------------------|
---------------------------------------------------------|
----------------------------------------7--9-9---4-5-4-2-|
-7--7-7--7-7--5--5-5--5-5--4--4-4--4-4--7--9-9-----------|
-7--7-7--7-7--5--5-5--5-5--4--4-4--4-4--5--7-7-----------|
-5--5-5--5-5--3--3-3--3-3--2--2-2--2-2-------------------|


CHORUS
-------------------------------------------------------------------|
-------------------------------------------------------------------|
---------------------------------------------------------  REPEAT--| 2X
-6-6-6-6-6-6--7-7-7-7-7-7--9-9-9-9-9-9--11-11-11-11-11-11----------|
-6-6-6-6-6-6--7-7-7-7-7-7--9-9-9-9-9-9--11-11-11-11-11-11----------|
-4-4-4-4-4-4--5-5-5-5-5-5--7-7-7-7-7-7--9--9--9--9--9--9-----------|


REPEAT INTRO
---------------------------------------------------------|
---------------------------------------------------------|
---------------------------------------------------------|
-5-5-5-5--5-5-5--5-3----5-5-5-5--5-5-5--5-3----5-5-5-5-5-|
-5-5-5-5--5-5-5--5-3----5-5-5-5--5-5-5--5-3----5-5-5-5-5-|
-3-3-3-3--3-3-3--3-1----3-3-3-3--3-3-3--3-1----3-3-3-3-3-|
                                                   * * *

VERSE II
-------------------------------------------------|
-------------------------------------------------|
-5-5-5-5-5-5-5-5-5-5-5-5-4-4-4-4-4-4-4-4-4-4-4-4-|
-5-5-5-5-5-5-5-5-5-5-5-5-4-4-4-4-4-4-4-4-4-4-4-4-|
-3-3-3-3-3-3-3-3-3-3-3-3-2-2-2-2-2-2-2-2-2-2-2-2-|
-------------------------------------------------|
 * * * * * * * * * * * * * * * * * * * * * * * *
                                                      REPEAT VERSE 2X
--------------------------------------------------|
--------------------------------------------------|
--------------------------------------------------|
-7-7-7-7-7-7-7-7-7-7-7-7-3-3-3-3-3-3-5-5-5-5-5-5--|
-7-7-7-7-7-7-7-7-7-7-7-7-3-3-3-3-3-3-5-5-5-5-5-5--|
-5-5-5-5-5-5-5-5-5-5-5-5-1-1-1-1-1-1-3-3-3-3-3-3--|
 * * * * * * * * * * * * * * * * * * * * *   *


PRE-CHORUS
---------------------------------------------------------|
---------------------------------------------------------|
----------------------------------------7----------------|
-7--7-7--7-7--5--5-5--5-5--4--4-4--4-4--7--2-2-----------|
-7--7-7--7-7--5--5-5--5-5--4--4-4--4-4--5--2-2-----------|
-5--5-5--5-5--3--3-3--3-3--2--2-2--2-2-----0-0-----------|

---------------------------------------------------------|
---------------------------------------------------------|
----------------------------------------7--9-9---4-5-4-2-|
-7--7-7--7-7--5--5-5--5-5--4--4-4--4-4--7--9-9-----------|
-7--7-7--7-7--5--5-5--5-5--4--4-4--4-4--5--7-7-----------|
-5--5-5--5-5--3--3-3--3-3--2--2-2--2-2-------------------|


CHORUS
-------------------------------------------------------------------|
-------------------------------------------------------------------|
---------------------------------------------------------  REPEAT--| 2X
-6-6-6-6-6-6--7-7-7-7-7-7--9-9-9-9-9-9--11-11-11-11-11-11----------|
-6-6-6-6-6-6--7-7-7-7-7-7--9-9-9-9-9-9--11-11-11-11-11-11----------|
-4-4-4-4-4-4--5-5-5-5-5-5--7-7-7-7-7-7--9--9--9--9--9--9-----------|


INTRO

--------------------------------------------     -------------|
--------------------------------------------     -------------|
--------------------------------------------     -------------|
-5-5-5-5--5-5-5--5-3----5-5-5-5--5-5-5--5-3- 2X  ---5-5-5-5-5-|
-5-5-5-5--5-5-5--5-3----5-5-5-5--5-5-5--5-3-     ---5-5-5-5-5-|
-3-3-3-3--3-3-3--3-1----3-3-3-3--3-3-3--3-1-     ---3-3-3-3-3-|
                                                        * * *

BRIDGE
---------------------------------------------|
---------------------------------------------|
---------------------------------------------| 2X
-3-3-3-3--3-3-3--3-2----3-3-3-3--3-3-3--3-2--|
-3-3-3-3--3-3-3--3-2----3-3-3-3--3-3-3--3-2--|
-1-1-1-1--1-1-1--1-0----1-1-1-1--1-1-1--1-0--|


GUITAR SOLO

--------------------14-12-14------------/17-15-17------17-15-17-----------|
-/12---14------/12------------14---/15------------14----------------------|
-----------14-------------------------------------------------------------|
------------------------------------------------------------------4/5/4/2-|
------------------------------------------------------------------4/5/4/2-|
------------------------------------------------------------------2/3/2/0-|


CHORUS
-------------------------------------------------------------------|
-------------------------------------------------------------------|
---------------------------------------------------------  REPEAT--| 2X
-6-6-6-6-6-6--7-7-7-7-7-7--9-9-9-9-9-9--11-11-11-11-11-11----------|
-6-6-6-6-6-6--7-7-7-7-7-7--9-9-9-9-9-9--11-11-11-11-11-11----------|
-4-4-4-4-4-4--5-5-5-5-5-5--7-7-7-7-7-7--9--9--9--9--9--9-----------|

END OF THE TAB..!
THANK YOU..!
HIGH AND MIGHTY COLOR ROCKS..!!!
            
Submit corrections

↑ Back to top | Tablatures and chords for acoustic guitar and electric guitar, ukulele, drums are parodies/interpretations of the original songs. You may use it for private study, scholarship, research or language learning purposes only