Home » H » Hello Goodbye »

Hello Goodbye - Homewrecker Tabs

Artists:  A B C D E F G H I J K L M N O P Q R S T U V W X Y Z # 

Homewrecker Tabs

(ver. 2) Click to play this song!
Hello Goodbye
Tuning: Standard

 "I built this house with my own hands..."
e|---------------------------------------------------------------------------|
B|---------------------------------------------------------------------------|
G|---------------------------------------------------------------------------|
D|--9-99-99-99-9-5-55-55-55-5-9-99-99-99-9-5-55-55-55-5----------------------|
A|--7-77-77-77-7-3-33-33-33-3-7-77-77-77-7-3-33-33-33-3----------------------|
E|---------------------------------------------------------------------------|

"And I'm feeling dumb..."
e|---------------------------------------------------------------------------|
B|--8------------8-----------------------------------------------------------|
G|--9------6-----9------6----------------------------------------------------|
D|--9------7-----9------7----------------------------------------------------|
A|--7------7-----7------7----------------------------------------------------|
E|---------5------------5----------------------------------------------------|

 "Who shut off my electricity..."
e|---------------------------------------------------------------------------|
B|---------------------------------------------------------------------------|
G|---------------------------------------------------------------------------|
D|--9-99-99-99-9-5-55-55-55-5-9-99-99-99-9-5-55-55-55-5----------------------|
A|--7-77-77-77-7-3-33-33-33-3-7-77-77-77-7-3-33-33-33-3----------------------|
E|---------------------------------------------------------------------------|

 "And I'm keeping one..."
e|--77--55--77--5-12-7---------------------------------------------------------|
B|--88--55--88--5-13-8---------------------------------------------------------|
G|--99--66--99--6-14-9---------------------------------------------------------|
D|--xx--77--xx--7-xx-x---------------------------------------------------------|
A|--xx--xx--xx--x-xx-x---------------------------------------------------------|
E|--xx--xx--xx--x-xx-x---------------------------------------------------------|

 "Who makes it hard to lock my doors at night.."
e|- 7777-7777---------------7777-7777----------------------------------------|
B|--8888-8888-5555-8-8-8-8--8888-8888-5555-8-8-8-8---------------------------|
G|--9999-9999-6666-9-9-9-9--9999-9999-6666-9-9-9-9---------------------------|
D|--9999-9999-6666-10101010-9999-9999-6666-10101010--------------------------|
A|------------7777-10101010-----------7777-10101010--------------------------|
E|---------------------------------------------------------------------------|

 "I will dig a hole..."
e|--7-7-7-7--7-7-7-7--7-7-7-7--7-7-7-7--7-7-7-7--7-7-7-7--7-7-7-7--7-7-7-7-----|
B|--8-8-8-8--8-8-8-8--8-8-8-8--8-8-8-8--8-8-8-8--8-8-8-8--8-8-8-8--8-8-8-8-----|
G|--9-9-9-9--9-9-9-9--9-9-9-9--9-9-9-9--9-9-9-9--9-9-9-9--9-9-9-9--9-9-9-9-----|
D|--9-9-9-9--9-9-9-9--10101010-10101010-9-9-9-9--9-9-9-9--10101010-10101010----|
A|--7-7-7-7--7-7-7-7--7-7-7-7--7-7-7-7--7-7-7-7--7-7-7-7--7-7-7-7--7-7-7-7-----|
E|--x-x-x-x--x-x-x-x--x-x-x-x--x-x-x-x--x-x-x-x--x-x-x-x--x-x-x-x--x-x-x-x-----|

 "Oh girl, you're the one..."
e|--77--55--77--5-12-7---------------------------------------------------------|
B|--88--55--88--5-13-8---------------------------------------------------------|
G|--99--66--99--6-14-9---------------------------------------------------------|
D|--xx--77--xx--7-xx-x---------------------------------------------------------|
A|--xx--xx--xx--x-xx-x---------------------------------------------------------|
E|--xx--xx--xx--x-xx-x---------------------------------------------------------|


 "Who makes it hard to lock my doors at night.."
e|- 7777-7777---------------7777-7777--------------------------------------------|
B|--8888-8888-5555-8-8-8-8--8888-8888-5555-8-8-8-8-------------------------------|
G|--9999-9999-6666-9-9-9-9--9999-9999-6666-9-9-9-9-------------------------------|
D|--9999-9999-6666-10101010-9999-9999-6666-10101010--9~--------------------------|
A|------------7777-10101010-----------7777-10101010--7~--------------------------|
E|-------------------------------------------------------------------------------|            
Submit corrections

↑ Back to top | Tablatures and chords for acoustic guitar and electric guitar, ukulele, drums are parodies/interpretations of the original songs. You may use it for private study, scholarship, research or language learning purposes only