» » »

Hed P.E. - The Only One Tabs

Artists:  A B C D E F G H I J K L M N O P Q R S T U V W X Y Z # 

The Only One Tabs

(ver. 1) Click to play this song!
Hed P.E.
 Rating:
4/5 (4 votes)

 The Only One lessons Tabs too difficult? Try these video lessons and learn fast
 
                
Drop B

Chorus:
-----------------------------------
-----------------------------------
-------------------------6-6-6-----
---0-0-0-0-0-0-0-3-3-3-3-6-6-6-6---
---0-0-0-0-0-0-0-3-3-3-3-4-4-4-6---
---0-0-0-0-0-0-0-3-3-3-3-------6---

Verse:
-------------------------------------|-------------
-------------------------------------|--------15---
-------------------------------------|-------------
---0-0-0-0-0---0-0-0-0-0-------------|---12--------
---0-0-0-0-0---0-0-0-0-0-------------|-------------
---0-0-0-0-0---0-0-0-0-0---3p2-3p2---|-------------
PM . . . . .   . . . . .

Bridge:
------------------------|-----------------
------------------------|-----------------
---7-7-7-7----7-7-7-----|---7-7---6-6-6---
------------------------|-----------------
---5-5-5-5----5-5-5-----|---5-5---4-4-4---
-----------0--------0---|-------0---------

End
-----------------------------------------
-----------------------------------------
---7-7-7-7-7-7-7-10-10-10-10-6-6-6-6-----
---7-7-7-7-7-7-7-10-10-10-10-6-6-6-6-6---
---5-5-5-5-5-5-5-8--8--8--8—-4-4-4-4-6---
-------------------------------------6---
            
Submit corrections


        The Only One lessons Hard to play? Try these video lessons and learn fast The Only One lessons
        
↑ Back to top | Tablatures and chords for acoustic guitar and electric guitar, ukulele, drums are parodies/interpretations of the original songs. You may use it for private study, scholarship, research or language learning purposes only