» » »

Hed P.E. - Suck It Up Tabs

Artists:  A B C D E F G H I J K L M N O P Q R S T U V W X Y Z # 

Suck It Up Tabs

(ver. 1) Click to play this song!
Hed P.E.
 Rating:
4/5 (4 votes)

 Suck It Up lessons Tabs too difficult? Try these video lessons and learn fast
 
                
tuning: B,F#,B,E,G#,C#

Intro:
----------------------------------------------
----------------------------------------------
----------------------------------------------
----------------------------------------------
---3-5-5-5-5-5-5-5-5-5--3-5-5-5-5-5-5-5-5-5---
----------------------------------------------

-----------------------|---------------
-----------------------|---------------
-----------------------|---------------
---1-4-1-3---1-4-1-3---|---3-6---3-9---
---1-4-1-3---1-4-1-3---|---3-6---3-9---
---1-4-1-3---1-4-1-3---|---3-6---3-9---

Verse:
--------------------------------
--------------------------------
--------------------------------
---1-4-1-3—--3---3---3-3--3-3---
---1-4-1-3---3---3---3-3--3-3---
---1-4-1-3---3---3---3-3--3-3---

Pre-chorus:
---------------------------
---------------------------
---------------------------
---0-0-0h3-3-6-6-6-6-5-5---
---0-0-0h3-3-6-6-6-6-5-5---
---0-0-0h3-3-6-6-6-6-5-5---

Chorus:
--------------------------
--------------------------
---8-8-8-8-8--------------
--------------0-x-0-x-0---
---6-6-6-6-6--0-x-0-x-0---
--------------0-x-0-x-0---

Bridge:
---------------------
---------------------
---------------------
---1--1--0-x-0-x-0---
---1--1--0-x-0-x-0---
---1-—1--0-x-0-x-0---
            
Submit corrections


        Suck It Up lessons Hard to play? Try these video lessons and learn fast Suck It Up lessons
        
↑ Back to top | Tablatures and chords for acoustic guitar and electric guitar, ukulele, drums are parodies/interpretations of the original songs. You may use it for private study, scholarship, research or language learning purposes only