» » »

Hed P.E. - Schpamb Tabs

Artists:  A B C D E F G H I J K L M N O P Q R S T U V W X Y Z # 

Schpamb Tabs

(ver. 1) Click to play this song!
Hed P.E.
 Rating:
4/5 (4 votes)

 Schpamb lessons Tabs too difficult? Try these video lessons and learn fast
 
                (Hed)pe

Intro :
----------------------------------
----------------------------------
----------------8-8-8-8-8-8-8-8---
---7--7--7--7---------------------
---7--7--7--7---------------------
---5--5--5--5---------------------

Main riff :
-------------------------------------
-------------------------------------
-------------------------------------
-----------------0-9-9-9-9-8-8-8-8---
---0-0-0-0---0---0-9-9-9-9-8-8-8-8---
---0-0-0-0-6-0---0-7-7-7-7-6-6-6-6---

variation :
-------------------------------------
-------------------------------------
-------------------------------------
-----------5-------6-6-6-6-5-5-5-5---
---4-4-4-4-3-4---4-4-4-4-4-3-3-3-3---
---2-2-2-2---2---2-------------------

other riff :
-----------------------------------
-----------------------------------
-----6-7---6-7---6-7---------------
---6-6-7-6-6-7-6-6-7-6-7-7-7-7-7---
---6-4-5-6-4-5-6-4-5-6-7-7-7-7-7---
---4-----4-----4-----4-5-5-5-5-5---

Outro :
------------------
------------------
-----4-3----4-3---
---2-4-3--2-4-3---
---2-2-1--2-2-1---
---0------0-------
            
Submit corrections


        Schpamb lessons Hard to play? Try these video lessons and learn fast Schpamb lessons
        
↑ Back to top | Tablatures and chords for acoustic guitar and electric guitar, ukulele, drums are parodies/interpretations of the original songs. You may use it for private study, scholarship, research or language learning purposes only