» » »

Hed P.E. - Revelations Tabs

Artists:  A B C D E F G H I J K L M N O P Q R S T U V W X Y Z # 

Revelations Tabs

(ver. 1) Click to play this song!
Hed P.E.
 Rating:
4/5 (4 votes)

 Revelations lessons Tabs too difficult? Try these video lessons and learn fast
 
                
Drop B (B,F#,B,E,G#,C#)

Main Riff:
---------------------------|-------------------------
-----------7---------------|---7-7-7-7-7-6-6-6-6-6---
---5/7-7-x-6-5-6-7---------|-------------------------
---5/7-7-x-4-5-6-7-x-x-3---|---4-4-4-4-4-3-3-3-3-3---
---3/5-5-x---3-4-5-x-x-3---|-------------------------
-------------------x-x-3---|-------------------------

Verse:
---------------------------
---------------------------
---------------------------
-------4-4-4-------3-3-3---
---3-5---------3-5---------
---------------------------

Chorus:
------------------------------
---6xx6-----------------------
---5xx5-6xx6-6-5xx5-4-4-4-4---
---3xx3-6xx6-6-5xx5-4-4-4-4---
--------4xx4-4-3xx3-2-2-2-2---
------------------------------

Bridge    1      &     2               
-----------------|---------------------
-----------------|---------------------
-----------------|---------6-------4---
---5-5-5---5-4---|---1-0---6---3---4---
---5-5-5---5-4---|---1-0---4---3---2---
---5-5-5-8-5-4---|---1-0-------3-------

End:
-----------------------------
-----------------------------
-----------------------------
---5-5-5---5-4---4---4---3---
---5-5-5---5-4---4---4---3---
---5-5-5-8-5-4---4---4---3---
            
Submit corrections


        Revelations lessons Hard to play? Try these video lessons and learn fast Revelations lessons
        
↑ Back to top | Tablatures and chords for acoustic guitar and electric guitar, ukulele, drums are parodies/interpretations of the original songs. You may use it for private study, scholarship, research or language learning purposes only