» » »

Hed P.E. - Other Side Tabs

Artists:  A B C D E F G H I J K L M N O P Q R S T U V W X Y Z # 

Other Side Tabs

(ver. 1) Click to play this song!
Hed P.E.
 Rating:
4/5 (4 votes)

 Other Side lessons Tabs too difficult? Try these video lessons and learn fast
 
                
Drop B (B,F#,B,E,G#,C#)

Intro:
--------7-----8h10h11--------7-----8h10p8---
---10-----10------------10-----10-----------
--------------------------------------------
--------------------------------------------
--------------------------------------------
--------------------------------------------

Verse:
---0-0-0-0-0-0-----------------1-1-1-1-1-1---1-1-1-1-1-1---
---1-1-1-1-1-1---3-3-3-3-3-3---1-1-1-1-1-1---3-3-3-3-3-3---
---2-2-2-2-2-2---0-0-0-0-0-0---2-2-2-2-2-2---2-2-2-2-2-2---
---2-2-2-2-2-2---0-0-0-0-0-0---3-3-3-3-3-3---0-0-0-0-0-0---
---0-0-0-0-0-0---2-2-2-2-2-2-------------------------------
-----------------------------------------------------------

Chorus:
---0-0-0-0-0-0---1-1-1-1-1-1---1-1-1-1-1-1---0-0-0-0-0-0---
---1-1-1-1-1-1---3-3-3-3-3-3---3-3-3-3-3-3---1-1-1-1-1-1---
---0-0-0-0-0-0---3-3-3-3-3-3---2-2-2-2-2-2---2-2-2-2-2-2---
---2-2-2-2-2-2---3-3-3-3-3-3---0-0-0-0-0-0---2-2-2-2-2-2---
---3-3-3-3-3-3---1-1-1-1-1-1-----------------0-0-0-0-0-0---
-----------------------------------------------------------

gtr 2:
-----------|----------------------------
-------5---|----------------------5-----
---5-7-----|---5----7------5-7------5---
-----------|----------8-----------------
-----------|----------------------------
-----------|----------------------------

Solo:
-----------------8h10-10-------------------------8h10-10---12p10p8------
---8h10-10---------------8h10-10---8h10-10-------------------------10---
-------------9-------------------------------9--------------------------
            
Submit corrections


        Other Side lessons Hard to play? Try these video lessons and learn fast Other Side lessons
        
↑ Back to top | Tablatures and chords for acoustic guitar and electric guitar, ukulele, drums are parodies/interpretations of the original songs. You may use it for private study, scholarship, research or language learning purposes only