» » »

Hed P.E. - Ground Tabs

Artists:  A B C D E F G H I J K L M N O P Q R S T U V W X Y Z # 

Ground Tabs

(ver. 1) Click to play this song!
Hed P.E.
 Rating:
4/5 (4 votes)

 Ground lessons Tabs too difficult? Try these video lessons and learn fast
 
                (Hed)pe

Intro :     x3         then :
--------------------------------------
--------------------------------------
--------------------------------------
----------------5-----------------5---
---4-4--4-6--6--3-4-6------4--6---3---
---2-2--2-4--4----2-4------2--4-------

Main riff :
----------------
----------------
---------5------
---4--6--5--6---
---4--6--3--6---
---2--4-----4---

Verse :
-------------------
-------------------
---------------5---
------------5------
---2--2-5-4-3------
---2--2-5-4--------

Bridge 1:
---------------------
---------------------
----------------4*---
----------------4*---
---2--2-5-4-2--------
---2--2-5-4-2--------

Bridge 2:
-------------------
-------------------
-------------------
-------------------
---2--2-5-4-2--2---
---2--2-5-4-2--2---

------------
------------
------------
---2----2---
---2----2---
---2----2---
            
Submit corrections


        Ground lessons Hard to play? Try these video lessons and learn fast Ground lessons
        
↑ Back to top | Tablatures and chords for acoustic guitar and electric guitar, ukulele, drums are parodies/interpretations of the original songs. You may use it for private study, scholarship, research or language learning purposes only