» » »

Hed P.E. - Flesh And Bone Tabs

Artists:  A B C D E F G H I J K L M N O P Q R S T U V W X Y Z # 

Flesh And Bone Tabs

(ver. 1) Click to play this song!
Hed P.E.
 Rating:
4/5 (4 votes)

 Flesh And Bone lessons Tabs too difficult? Try these video lessons and learn fast
 
                (Hed)p.e.
Blackout

Drop B : B F# B E G# C#

Verse:
------------------------------------------------------
------------------------------------------------------
------------------------------------------------------
---0h3-3-3h5-5-9-9-9-9-9-9----0h3-3-3h5-5-9-9-9-9-3---
---0h3-3-3h5-5-9-9-9-9-9-9----0h3-3-3h5-5-9-9-9-9-3---
---0h3-3-3h5-5-9-9-9-9-9-9----0h3-3-3h5-5-9-9-9-9-3---

-------------------------------------------------
-------------------------------------------------
---7-7-7-7-7-7-----------7-7-7-7-7-7-------------
-----------------0h3-------------------3-x-x-2---
---5-5-5-5-5-5---0h3-----5-5-5-5-5-5---3-x-x-2---
-----------------0h3-------------------3-x-x-2---

Chorus:
--------------------------------------
---3----------------------------------
---2----9----10---7-------------------
---0----7----8----5-----5-5-5-5-5-1---
---0----7----8----5-----5-5-5-5-5-1---
---0----7----8----5-----5-5-5-5-5-1---

---------------------------------------------------
---3-----------------------------------------------
---2----9----10---7--------------------------------
---0----7----8----5-----5--5-5—5--5-5--5-5-5--5---
---0----7----8----5-----5--5-5-----5-5--5-5-5------
---0----7----8----5-----5--5-5-----5-5--5-5-5------

Bridge:
-----------------------------------------
-----------------------------------------
---10-10-10-10-10-10-10-10-10-10-10-10---
---8--8--8--8--8--8--8--8--8--8--8--8----
---8--8--8--8--8--8--8--8--8--8--8--8----
---8--8--8--8--8--8--8--8--8--8--8--8----

----------------------------------------------------------
----------------------------------------------------------
----------------------------------------------------------
---5-5-5-5--5--5-5--5-5--5--5-5-5-5-5-5--5--5-5--5-5--5---
---5-5-5-5-----5-5--5-5-----5-5-5-5-5-5-----5-5--5-5------
---5-5-5-5-----5-5--5-5-----5-5-5-5-5-5-----5-5--5-5------


-----------------|-------------------------------------
-----------------|-------------------------------------
-----------------|-------------------------------------
---9---10---12---|---9-9-10-9-10-12---9-9-10-9-10-13---
-----------------|-------------------------------------
-----------------|-------------------------------------
            
Submit corrections


        Flesh And Bone lessons Hard to play? Try these video lessons and learn fast Flesh And Bone lessons
        
↑ Back to top | Tablatures and chords for acoustic guitar and electric guitar, ukulele, drums are parodies/interpretations of the original songs. You may use it for private study, scholarship, research or language learning purposes only