» » »

Hed P.E. - Fallen Tabs

Artists:  A B C D E F G H I J K L M N O P Q R S T U V W X Y Z # 

Fallen Tabs

(ver. 1) Click to play this song!
Hed P.E.
 Rating:
4/5 (4 votes)

 Fallen lessons Tabs too difficult? Try these video lessons and learn fast
 
                
Drop B

Intro:
-------------------
-------------------
-------------------
---2-2-2-2-4-4-4---
---2-2-2-2-4-4-4---
---2-2-2-2-4-4-4---

Verse:
-------------------------------------|---------------
-------------------------------------|---------------
---11-11-11-11-11---10-10-10-10-10---|-------5h7-5---
-------------------------------------|---0-7---------
---9--9--9--9--9----8--8--8--8--8----|---------------
-------------------------------------|---------------

Chorus:
-------------------------------------
-------------------------------------
-------------------2-2-2-2-----------
---0-0-0-0-3-3-3-3-2-2-2-2-3-3-3-3---
---0-0-0-0-3-3-3-3-0-0-0-0-3-3-3-3---
---0-0-0-0-3-3-3-3---------3-3-3-3---

Bridge:
----------------------------
---9-x-9--------------------
---x-x-x-x-10-x-7-x-7\5-5---
---6-x-6-x-x—x-x-x-x-x-x---
---------x-8—x-5-x-5\3-3---
----------------------------

End:
------------------13-13-17-17-16-16-16-16-17-17-17------
---15-15-15-15-15------------------------<17><17><17>---
--------------------------------------------------------
--------------------------------------------------------
--------------------------------------------------------
--------------------------------------------------------
<17>: the 2nd & the 4th time on the G#
            
Submit corrections


        Fallen lessons Hard to play? Try these video lessons and learn fast Fallen lessons
        
↑ Back to top | Tablatures and chords for acoustic guitar and electric guitar, ukulele, drums are parodies/interpretations of the original songs. You may use it for private study, scholarship, research or language learning purposes only