» » »

Hed P.E. - Crazy Life Tabs

Artists:  A B C D E F G H I J K L M N O P Q R S T U V W X Y Z # 

Crazy Life Tabs

(ver. 1) Click to play this song!
Hed P.E.
 Rating:
4/5 (4 votes)

 Crazy Life lessons Tabs too difficult? Try these video lessons and learn fast
 
                
Drop B: B,F#,B,E,G#,C#

Riff 1:
----------------
----------------
----------------
---6------------
---6------------
---6---0-0--0---

Riff 2:
-----------------------------
----------------6-8----------
-------7-7---7-------7-5-----
-----5-------------------8---
---5-------------------------
-----------------------------

Chorus:
--------------------|---------------
--------------------|---------------
--------------------|---2-----------
---0------------1---|---2---x-x-1---
---0---0-0-0--0-1---|---0---x-x-1---
---0---0-0-0--0-1---|-------x-x-1---

riff 3: „cra cra crazy“
-----------------------
-----------------------
---7---7---7---7-------
-------------------6---
---5---5---5---5---6---
-------------------6---

riff 4 :
---------------
---------------
---5-5-5-5-----
-----------4---
---3-3-3-3-4---
-----------4---
            
Submit corrections


        Crazy Life lessons Hard to play? Try these video lessons and learn fast Crazy Life lessons
        
↑ Back to top | Tablatures and chords for acoustic guitar and electric guitar, ukulele, drums are parodies/interpretations of the original songs. You may use it for private study, scholarship, research or language learning purposes only