» » »

Hed P.E. - Bury Me Tabs

Artists:  A B C D E F G H I J K L M N O P Q R S T U V W X Y Z # 

Bury Me Tabs

(ver. 1) Click to play this song!
Hed P.E.
 Rating:
4/5 (4 votes)

 Bury Me lessons Tabs too difficult? Try these video lessons and learn fast
 
                
tuning: Drop B

Verse:
-----------------------------------------
-----------------------------------------
-----------------------------------------
-----------------------------------------
-----------------------------x-4-3-------
---3h5-5-x-3h5-5-5-----3h5-5-------x-5---
                        
Pre-chorus:               
----------------------------
----------------------------
----------------------------
---7--8--5-----7--8--5--2---
---7--8--5-----7--8--5--2---
---7--8--5-----7--8--5--2--- 

Chorus:
-----------------|------------------
-----------------|------------------
---7---7---7/8---|---8---8---8/10---
-----0---0-------|-----0---0--------
---5-0-5-0-5/6---|---6-0-6-0-6/8----
-----0---0-------|-----0---0--------

gtr2:
--------------------------------------
--------------------------------------
---7-7/8/10-10/12-12-15-15-15-17-17---
--------------------------------------
---5-5/6/8—--8/10-10-13-13-13-15-15---
--------------------------------------
            
Submit corrections


        Bury Me lessons Hard to play? Try these video lessons and learn fast Bury Me lessons
        
↑ Back to top | Tablatures and chords for acoustic guitar and electric guitar, ukulele, drums are parodies/interpretations of the original songs. You may use it for private study, scholarship, research or language learning purposes only