Home » H » Heaven And Hell »

Heaven And Hell - Fear Tabs

Artists:  A B C D E F G H I J K L M N O P Q R S T U V W X Y Z # 

Fear Tabs

(ver. 1) Click to play this song!
Heaven And Hell
(Intro)
Heaven and Hell - Fear
Only the intro sorry thought id tab the correct intro.
Tuning is half step down.
~-vibrato
.-Palm mute

--------------------------------------------------------------|
--------------------------------------------------------------|
--------------------------------------------------------------| x4
-------------------5-------------------------9----------------|
-----7~-5-7-----7----7-8~----7-5-7-----7--8---8---------------|
--0----------0--------------0---------0-----------------------|


On the fifth time it goes like this.

---------------------------------------------------------------|
---------------------------------------------------------------|
---------------------------------------------------------------|
---------------10-----9-----7-----5----------------------------|
----7~-5-7-----10-----9-----7-----5----------------------------|
--0----------8-8----7-7---5-5---3-3----------------------------|
             .      .     .     .
            
Submit corrections

↑ Back to top | Tablatures and chords for acoustic guitar and electric guitar, ukulele, drums are parodies/interpretations of the original songs. You may use it for private study, scholarship, research or language learning purposes only