Home » H » Heat »

Heat - Living On The Run Tabs

Artists:  A B C D E F G H I J K L M N O P Q R S T U V W X Y Z # 

Living On The Run Tabs

(ver. 2) Click to play this song!
Heat
------------------------------------------------------------------------------
------------------------------------------------------------------------------
----------------------------------8--8---------------------8---6----6-6-------
----------------------------------8--8---------------------8---6----6-6-------
----------------------------------6--6---6-6-6-6-6-6-6-6-6---6----------------
------------------------------------------------------------------------------
keyboard intro, then the guitar: pm-----------------------   -  


------------------------------------------------------------------------------
------------------------------------------------------------------------------
-------------------6---8----8-8----------------------8\---4---8---6-------8---
-------------------6---8----8-8----------------------8\---4---8---6-------8---
-6-6-6-6-6-6-6-6-6---6-----------6-6-6-6-6-6-6-6-6-6-6\---2---6---4-----4-6---
---------------------------------------------------------------------/6-------
pm--------------- - pm----------------- Repeat x 2 similar.


------------------------------------------------------------------------------
------------------------------------------------------------------------------
-----4---4-4---4---------------------4---6----6-6---6-------------------------
-4---4---4-4---4---------------------4---6----6-6---6-------------------------
-1-0-2---2-2-2-2-2-2-2-2-2-2-2-2-2-2-2-0-4----4-4-4-4-4-4-4-4-4-4-4-4-4-4-----
------------------------------------------------------------------------------
- - pm----------------- - - pm-----------------


------------------------------------------------------------------------------
---------------------------------------7-6---7-6---7---7-6--------------------
-----4---4-4---4---------------4-4-4---6-6---6-6---6---6-6--------------------
-4---4---4-4---4-----------4-4-4-4-4---6-6---6-6---6---6-6--------------------
-1-0-2---2-2-2-2-2-2-2-2-2-2-2-2-2-2---4-4---4-4---4---4-4--------------------
-------------------------------------------------------------15\--------------
- - pm------- . . . . . slide


------------------------------------------------------------------------------
----------------------------------------------7-------------------------------
-6--/8--8---8--------4--4---4------6-----6--6-6-------------4------6--------3-
-6--/8--8---8------4-4--4---4------6-----6--6-4-------------4------6----3-4---
-4--/6--6---6------1/2--2---2------4---4-4--4-------------1-2------4--6-------
----------------------------------------------------2-2-4---------------------
Chorus pm pm----- Repeat x2


------------------------------------------------------------------------------
------------------------------------------------------------------------------
---4-------6------------3-----------4---------6-------------------------------
---4-------6--------3-4-------------4---------6-------------------------------
---2-------4------6-----------------2---------4-------------------------------
------------------------------------------------------------------------------
"Oh Oh living on the run...." now return to verse.


------------------------------------------------------------------------------
------------------------------------------------------------------------------
------------------------------------------------------------------------------
--6------------------------------4-------3-------4---4-------3-------4---4----
--6---------------------------------------------------------------------------
--4----------12\--------------------0-0-----0-0----0----0-0-----0-0----0------
02:53 end of the second chorus. pm- pm- - pm- pm- -



------------------------------------------------------------------------------
------------------------------------------------------------------------------
------------------------------------------------------------------------------
------3-------4---4-------3------4p3-----4-------3-------4---4-------3--------
-------------------------------------4----------------------------------------
-0-0-----0-0----0----0-0-----0--------------0-0-----0-0----0----0-0-----0-0---
pm- pm- - pm- - pm- pm- - pm- pm-


------------------------------------------------------------------------------
-------7--6-----7-6------7\---------------------------------------------------
-------6--6-----6-6------6\---------------------------------------------------
--4----6--6-----6-6------6\---------------------------------------------------
-------4--4-----4-4------4\---------------------------------------------------
------------------------------------------------------------------------------


------------------------------------------------------------------------------
------------------------------------------------------------------------------
------/8v---8-10-11-8b9--------------11---------------------------------------
-------------------------13-11----11----13v---13p11---------------------------
-------------------------------13--------------------13p11\9-----9--11b13-----
--------------------------------------------------------------10--------------
solo 


------------------------------------------------------------------------------
---------------------------------------14b16v--------11----11\--/11-12----12\-
------------------13b15--13b15--13p11------------13--------------------11-----
----------------------------------------------13--------13--------------------
-11b3--11p9----9--------------------------------------------------------------
------------10----------------------------------------------------------------



--------------11----------11-----------------11-------------------------------
-/14-14----14----------------14p11--------11----14p11-------------------------
--------13--------13v--------------13b14--------------14p13p11-----13-11v-----
----------------------------------------------------------------13------------
------------------------------------------------------------------------------
------------------------------------------------------------------------------



---------------------11h13h14\--/13-14-16p14p13-------------------------------
-----------11h12h14------------------------------16p14------------------------
-10h11h13---------------------------------------------------------------------
------------------------------------------------------------------------------
------------------------------------------------------------------------------
------------------------------------------------------------------------------
1 2 4 1 2 4 1 3 4 1 2 4 2 1 4 2 now the tapping run


-t18p16-t18p16p14p13----------t18p16-t18p16p14p13-----------------------------
----------------------h16p14-----------------------h16p14---------------------
------------------------------------------------------------------------------
------------------------------------------------------------------------------
------------------------------------------------------------------------------
------------------------------------------------------------------------------
(suggested fingering: one finger for fret)


------------------------------------------------------------------------------
-h16p14h16p14h16t18p16p14---t18p16p14\12p11h12h14p12p11-----------------------
--------------------------------------------------------h13p11p10h11h13p11p10-
------------------------------------------------------------------------------
------------------------------------------------------------------------------
------------------------------------------------------------------------------
  


------------------------------------------------------------------------------
------------------------------------------------------------------------------
------------------------------------------------------------------------------
-13-11------------------------------------------------------------------------
-------13---------------------------------------------------------------------
----------11------------------------------------------------------------------
              now returns in the middle chorus till the end.            
Submit corrections

↑ Back to top | Tablatures and chords for acoustic guitar and electric guitar, ukulele, drums are parodies/interpretations of the original songs. You may use it for private study, scholarship, research or language learning purposes only